PrimaNota.ru - самый крупный в мире бесплатный архив песенных текстов, аккордов, табулатур и нот


Goncalo Pereira - Movimento - таба, видео

Регистрация Запомнить меня
Войти через:  Facebook Google Twitter Vk Yandex Mail.ru

Goncalo Pereira - Movimento - таба, видео

Печатать
Просмотров: 93
This guy is the best.
Artist: Goncal Pereira
Song: Movimento
Tabbed by Ian/Alexi1
Standard tunning.

|-11-11-13-11-16-11------------------11-9----------------8-4---------|
|-------------------14-13--9-9-11-13------13-11--9-4-6-4-----6-3-----|
|--------------------------------------------------------------------|
|--------------------------------------------------------------------|
|--------------------------------------------------------------------|
|--------------------------------------------------------------------|

|-----10-8-----10-8-----10-8-----10-8-10-8---------------------------|
|-8-6------8-6------9-6------8-6-----------12-10--12-10-8-7-8-7------|
|---------------------------------------------------------------10-9-|
|--------------------------------------------------------------------|
|--------------------------------------------------------------------|
|--------------------------------------------------------------------|

|-------------------------------------8-11-10-11---------------------|
|---------------------------8-13-----------------12-13-8-9-----------|
|-10-9-8-7-8-7-------------------8-12----------------------11-12-----|
|--------------11-12--10-13------------------------------------------|
|--------------------------------------------------------------------|
|--------------------------------------------------------------------|

|-----------------8-11-10-11-----------------------------------------|
|-------8-13-----------------12-13-8-9-------------8-12-11-12-8-11---|
|------------8-12----------------------11-12--7-10-------------------|
|-10-13--------------------------------------------------------------|
|--------------------------------------------------------------------|
|--------------------------------------------------------------------|

|--------------------------------------------------------------------|
|--------------------------------------------------------------------|
|------8-12-11-12-8-11------7-11-10-11-7-11------7-11-10-11-7-11-----|
|-7-10-----------------7-10-----------------7-10---------------------|
|--------------------------------------------------------------------|
|--------------------------------------------------------------------|

|------------------------------------------------------------------------|
|----------------------------------------------------------12-15-12------|
|-------13-17-16-17-13-16-------13-17-16-17-13-16------------------------|
|-12-15-------------------12-15----------------------12-17---------17-12-|
|-------------------------------------------------14---------------------|
|------------------------------------------------------------------------|

|--------8-11-8---------------------------------7-10-7------------7-10-7----
|---------------8-12-13-8---------------------------------------------------
|----8-12-----------------8-11-12-8--------7-12--------12-7---7-12------12-7
|-10--------------------------------10-7-9------------------9---------------
|---------------------------------------------------------------------------
|---------------------------------------------------------------------------

|-----6-10-6-----------6-10-6----------------------------------------------|
|----------------------------------------10-15-10-------------10-15-10-----|
|-7-12------12-7---7-12------12-7----------------16-10---------------------|
|8---------------8----------------10-16---------------10-16-----------16-12-
|--------------------------------------12-------------------12-------------|
|--------------------------------------------------------------------------|

|-------8-11-8------------------------------8-11-8-------------------------|
|-------------8-12-13-8----------------------------8-12-13-8---------------|
|--8-12-----------------8-11-12-8-------8-12----------------8-11-12-8------|
|10------------------------------10-7-10------------------------------10-7-|
|--------------------------------------------------------------------------|
|--------------------------------------------------------------------------|

|--------------------------------------------------------------------------|
|----------------------------------------------15-19-18-15-----------------|
|-----14-17-----14-17-----14-17-----14-17-12-17-----------19-17-16-17-14-16|
|12-16-----12-16-----12-13-----12-16---------------------------------------|
|--------------------------------------------------------------------------|
|--------------------------------------------------------------------------|

|--------------------------------------------------------------------------|
|----------------------------------------------15-19-18-15-----------------|
|-----14-17-----14-17-----14-17-----14-17-12-17-----------19-17-16-17-14-16|
|12-16-----12-16-----12-16-----12-16---------------------------------------|
|--------------------------------------------------------------------------|
|--------------------------------------------------------------------------|

|--------------------------------------------------------------------------|
|--------------------------------------------------------------------------|
|--------------------------------------------------------------------------|
|-----14-17-----14-17-----14-17-----14-17-----14-17-1614--------16191816---|
|12-16-----12-16-----12-16-----12-16-----13-16----------17161417--------1917
|--------------------------------------------------------------------------|

|--------------------------------------------------------------------------|
|--------------------------------------------------------------------------|
|-----16-19-18-16----------------------------------------------------------|
|15-18-----------19-18-16-19-----16-19-18-16-15-18-----15-18-17-15-14-17---|
|---------------------------15-18-----------------14-17-----------------13-|
|--------------------------------------------------------------------------|

|--------------------------------------------------------|
|-------------------12-15-----12-15-----12-15-----12-15--|
|--------------------------------------------------------|
|--14-17-16-14-12-16-----12-16-----12-16-----12-16-------|
|16------------------------------------------------------|
|--------------------------------------------------------|

|-------------------------------------------------|
|------12-15-------12-15-------12-15-------12-15--|
|-------------------------------------------------|
|12-17-------12-17-------12-17-------12-17--------|
|-------------------------------------------------|
|-------------------------------------------------|

|------------------------------------------------------------------------|
|-----12-15-----12-15-----12-15-----12-15-----12-15-14-12----------------|
|----------------------------------------10-13-----------14-13-10-13-----|
|12-16-----12-16-----12-16-----12-16--------------------------------9-12-|
|------------------------------------------------------------------------|
|------------------------------------------------------------------------|

|------------------------------------15-12-15-12-15-12-11-14---------------|
|--------------------17-14------14-11-----------------------13-16----------|
|-----10-10----------------15-12---------------------------------11-14-----|
|----------14-11------------------------------------------------------10-13|
|-8-11----------13-10------------------------------------------------------|
|--------------------------------------------------------------------------|

|------8-11-8-11-8-11-10-13-------------------7-10-7-10-7-10-9-12----------|
|--------------------------12-15---------------------------------11-14-----|
|-11-14-------------------------10-13----10-13------------------------9-12-|
|------------------------------------9-12----------------------------------|
|--------------------------------------------------------------------------|
|--------------------------------------------------------------------------|

|---------6-9-6-9-6-9-8-------------------8--------------------10----------|
|--------------------------------------------------------------------------|
|-----9-12-------------13-12-10-9-10-12-13--13-12-10-9-10-12-13--16-13-12-11
|-8-11---------------------------------------------------------------------|
|--------------------------------------------------------------------------|
|--------------------------------------------------------------------------|

|------------------------9-8-------------------------------9-8-------------|
|--------------9-12-13-12---9-8-11-9-------------9-12-13-12---9-8-11-9-----|
|-12-10-12--------------------------8-7-10-8--------------------------8-7-10
|---------10-13-----------------------------10-13--------------------------|
|--------------------------------------------------------------------------|
|--------------------------------------------------------------------------|

|----------------9-12-11-12------------------------------9-12-11-9--|
|------------8-11----------8-11-10-11----------------8-11-----------|
|-8-6-9---6-9------------------------6-9-8-9------6-9---------------|
|------5-8-------------------------------------5-8------------------|
|-------------------------------------------4-7---------------------|
|-------------------------------------------------------------------|

|----------------9-8-------------------------------9-8-------------------|
|------9-12-13-12---9-8-11-9-------------9-12-13-12---9-8-11-9-----------|
|---------------------------8-7-10-8---------------------------8-7-10-8--|
|-10-13-----------------------------10-13--------------------------------|
|------------------------------------------------------------------------|
|------------------------------------------------------------------------|

|----------------10-13-11-10-15-13-11-10-11-13-11-10-8-10-11-8-10-11-10-8-|
|------------9-12---------------------------------------------------------|
|-7-10---7-10-------------------------------------------------------------|
|-----6-9-----------------------------------------------------------------|
|-------------------------------------------------------------------------|
|-------------------------------------------------------------------------|

|-7-8-10-7-8~~--11-13-11-16-11---------------11-9--------------8-4-------|
|-----------------------------14-13-9-9-11-13----13-11-9-4-6-4-----6-3---|
|------------------------------------------------------------------------|
|------------------------------------------------------------------------|
|------------------------------------------------------------------------|
|------------------------------------------------------------------------|

|----10-8---10-8----10-8---10-8---------------------------------|
|-8-6----8-6-----9-6----8-6----8-6------------------------------|
|---------------------------------7-5-7-5-----------------------|
|----------------------------------------9-7-9-7-5-4-5-4--------|
|--------------------------------------------------------8-7----|
|---------------------------------------------------------------|

|-----------------------------------------------------------------|
|-----------------------------------------------------------------|
|-----------------------------5-8-7-8-4-5-------------------5-8---|
|--------------------5-10----------------5-6-4-5----5-10----------|
|-8-7-6-5-6-5-4-5-3-6-----6-10------------------3-6-----6-10------|
|-----------------------------------------------------------------|

|-----------------------------------------------------------------|
|-----------------------------------------------------------------|
|-7-8-4-5---------------------5-8--12-----------------------------|
|--------5-6-4-5----5-10-----------------9-------10~~~~~----------|
|----------------3-6-----6-10-------------------------------------|
|-----------------------------------------------------------------|

Thats it. the whole song. It's very good. Ian/Alexi1
www.goncalopereira.pt

Добавлено: 17.03.2012
Другие материалы по этой песне:

Страница создана 17.03.2012
http://primanota.ru/goncalo-pereira/movimento-chords.htm
Привет, Гость.
Предлагаем пройти революционный курс по гитаре.
Подарок от PrimaNota.Ru, забирай!