PrimaNota.ru - самый крупный в мире бесплатный архив песенных текстов, аккордов, табулатур и нот


Gomo - I wonder - таба, видео

Регистрация Запомнить меня
Войти через:  Facebook Google Twitter Vk Yandex Mail.ru

Gomo - I wonder - таба, видео

Печатать
Просмотров: 58


I couldn't find this song anywhere online so for all you kids who listen know
this song and want to know how to play it here it is. It's pretty basic.

[Intro]x4
e|-----------
B|-2---------
G|-2--9-----7
D|-2--9--4--7
A|-0--7--4--5
E|-------2---

[Verse]x4
e|-----------
B|-2--2------
G|-2--2-----7
D|-2--2--4--7
A|-0--0--4--5
E|-------2---

[Bridge]x2 (Cause I knew...)
e|----------2
B|-2--------3
G|-2--1-----2
D|-2--2--4---
A|-0--2--4---
E|----0--2---

{Repeat Verse}x4

[Pre-Chorus](And I wonder...)x2

e|-----------
B|-----------
G|-----------
D|-----------
A|-0-----0---
E|----2-----2

[Chorus]x4

e|-----------
B|-2---------
G|-2--9-----7
D|-2--9--4--7
A|-0--7--4--5
E|-------2---

[3rd Verse]x4 (Sitting in a car..)

e|----------2
B|-2--------3
G|-2--1-----2
D|-2--2--4---
A|-0--2--4---
E|----0--2---

[Pre-Chorus](And I wonder...)x2

e|-----------
B|-----------
G|-----------
D|-----------
A|-0-----0---
E|----2-----2

[Chorus]x4

e|-----------
B|-2---------
G|-2--9-----7
D|-2--9--4--7
A|-0--7--4--5
E|-------2---

Just repeat the rest basically. That's the main structure of the song.



Добавлено: 26.11.2013
Вам также может быть интересно:
Другие материалы по этой песне:
  • Аккорды и текст

Страница создана 26.11.2013
http://primanota.ru/gomo/i-wonder-chords.htm
Привет, Гость.
Предлагаем пройти революционный курс по гитаре.
Подарок от PrimaNota.Ru, забирай!