PrimaNota.ru - самый крупный в мире бесплатный архив песенных текстов, аккордов, табулатур и нот


Golpes Bajos - Maldito Dia - таба, видео

Регистрация Запомнить меня
Войти через:  Facebook Google Twitter Vk Yandex Mail.ru

Golpes Bajos - Maldito Dia - таба, видео

Печатать
Просмотров: 102
|Am|  e|-5-|
      B|-5-|
      G|-5-|
      D|-7-|
      A|-7-|
      E|-5-|



C              G
Dime cómo olvidar tu cara.
Am             F
Dime cómo olvidar tu voz.
C             G               F
Dime cómo pensar que todo acabó.

   e e e e e e e e e 
e|---1-----1----------|
B|-----1-----1---0-1--|
G|-------2-----2------|
D|--------------------|
A|--------------------|
E|--------------------|

C              G
Dime si tú ya no recuerdas.
Am                F
Dime si el tiempo es traición.
C                 G           F
Dime si te han robado el corazón.

   e e e e e e e e e 
e|---1-----1----------|
B|-----1-----1---0-1--|
G|-------2-----2------|
D|--------------------|
A|--------------------|
E|--------------------|

C              G
Dime cómo olvidar tus besos.
Am             F
Dime cómo olvidar tu amor.
C              G            F
Dime cómo ignorar lo que pasó.
C              G
Quisiera regresar contigo,
Am             F
pero yo soy solo tu amigo.
C            G            F
Y ya no encuentro otra razón.

CORO
C         G         Am           F
Cómo vivir, cómo soñar, cómo sentir.
                  C
Cómo pudiste olvidar,
            G              F
si cuando lloro es por tratar.

C        G          Am              F
Cómo seguir, cómo parar, cómo insistir.
                   C
Cómo te puedo olvidar,
           G          F
si todo me hace recordar.


SOLO
   
  C                  G/D                Am                 F
    q.    q.    q      q.    q.    q      q.    q.    q      q.    q.    q
e|--------------0---|------------------|------------------|------------------|
B|--1---------------|--3-----0---------|--1-----------1---|--------1---------|
G|--------0---------|--------------0---|--------2---------|--------------2---|
D|------------------|------------------|------------------|--3---------------|
A|--3---------------|--2---------------|--0---------------|------------------|
E|------------------|------------------|------------------|--1---------------|

  C                  G/D                Am                 F
    q.    q.    q      q.    q.    q      q.    q.    q      q.    h
e|--------------0---|------------------|------------------|------------------|
B|--1---------------|--3-----0---------|--1-----------1---|--------1---------|
G|--------0---------|--------------0---|--------2---------|------------------|
D|------------------|------------------|------------------|--3---------------|
A|--3---------------|--2---------------|--0---------------|------------------|
E|------------------|------------------|------------------|--1---------------|



Dime si sientes lo que yo te quiero,

y tu ya sabes sin tí me muero.

Dime lo que tú quieras por favor.

Tú sabes que yo estoy sufriendo,

pero mi orgullo dice no, y te miento,

y ya no encuentro otra razón.

CORO
C         G         Am           F
Cómo vivir, cómo soñar, cómo sentir.
                  C
Cómo pudiste olvidar,
            G              F
si cuando lloro es por tratar.

C        G          Am              F
Cómo seguir, cómo parar, cómo insistir.
                   C
Cómo te puedo olvidar,
           G          F
si todo me hace recordar.


|Am|        G            F  
Quisiera decirte lo que siento, pero no puedo esperar.
|Am|         G           F
Quisiera hablarte con palabras,
                            G
pero no me alcanzan para decirte.


SOLO

  C                  G/D                Am                 F
    q.    q.    q      q.    q.    q      q.    q.    q      q.    q.    q
e|--------------0---|------------------|------------------|------------------|
B|--1---------------|--3-----0---------|--1-----------1---|--------1---------|
G|--------0---------|--------------0---|--------2---------|--------------2---|
D|------------------|------------------|------------------|--3---------------|
A|--3---------------|--2---------------|--0---------------|------------------|
E|------------------|------------------|------------------|--1---------------|

  C                  G/D                Am                 F
    q.    q.    q      q.    q.    q      q.    q.    q      q.    q.    q
e|--------------0---|------------------|------------------|------------------|
B|--1---------------|--3-----0---------|--1-----------1---|--------1---------|
G|--------0---------|--------------0---|--------2---------|--------------2---|
D|------------------|------------------|------------------|--3---------------|
A|--3---------------|--2---------------|--0---------------|------------------|
E|------------------|------------------|------------------|--1---------------|


CORO
C         G         Am           F
Cómo vivir, cómo soñar, cómo sentir.
                  C
Cómo pudiste olvidar,
            G              F
si cuando lloro es por tratar.

C        G          Am              F
Cómo seguir, cómo parar, cómo insistir.
                   C
Cómo te puedo olvidar,
           G          F
si todo me hace recordar.


SOLO

  C                  G/D                Am                 F
    q.    q.    q      q.    q.    q      q.    q.    q      q.    q.    q
e|--------------0---|------------------|------------------|------------------|
B|--1---------------|--3-----0---------|--1-----------1---|--------1---------|
G|--------0---------|--------------0---|--------2---------|--------------2---|
D|------------------|------------------|------------------|--3---------------|
A|--3---------------|--2---------------|--0---------------|------------------|
E|------------------|------------------|------------------|--1---------------|

  C                  G/D                Am                 F                  C
    q.    q.    q      q.    q.    q      q.    q.    q      q.    q.    q     w
e|--------------0---|------------------|------------------|------------------|-0-|
B|--1---------------|--3-----0---------|--1-----------1---|--------1---------|-1-|
G|--------0---------|--------------0---|--------2---------|--------------2---|-0-|
D|------------------|------------------|------------------|--3---------------|-2-|
A|--3---------------|--2---------------|--0---------------|------------------|-3-|
E|------------------|------------------|------------------|--1---------------|-0-|

www.albuenchapin.com
Добавлено: 29.02.2012
Другие материалы по этой песне:
  • Аккорды и текст

Страница создана 29.02.2012
http://primanota.ru/golpes-bajos/maldito-dia-chords.htm
Привет, Гость.
Предлагаем пройти революционный курс по гитаре.
Подарок от PrimaNota.Ru, забирай!