PrimaNota.ru - самый крупный в мире бесплатный архив песенных текстов, аккордов, табулатур и нот


Goliath And The Giants - Disco - таба, видео

Регистрация Запомнить меня
Войти через:  Facebook Google Twitter Vk Yandex Mail.ru

Goliath And The Giants - Disco - таба, видео

Печатать
Просмотров: 41
Hey, this is a song by Goliath And The Giants from their second album 'Done Deed'.
My first tab however so sorry if it's messy.
I'm sure you can figure out the rhythm for yourself.
Any comments appreciated


Intro/Vers:
e|-------------------------------------------------------------------------------|
B|-------------------------------------------------------------------------------|
G|-----------------------------------5-b-6-b-5--------5-b-6-b-5------------------|
D|--12-12-12-12---9-s-7---9--7--5-5------------7-5--5--------------7-5--------5--| 
A|--10-10-10-10--10-s-9--10--9--7-7-------------------------------------5-h-7----|
E|-------------------------------------------------------------------------------|


e|-------------------------------------------------------------------------------|
B|-------------------------------------------------------------------------------|
G|-----------------------------------4-4-4-4-4-7-7-7-7-7---------------------4---|
D|--12-12-12-12---9-s-7---9--7--5-5----------------------5-5-5-5-5-7-7-7-7-7---5-| x6
A|--10-10-10-10--10-s-9--10--9--7-7----------------------------------------------|
E|-------------------------------------------------------------------------------|
   

Chorus:
e|-------------------------------------------------------------------------------|
B|-------------------------------------------------------------------------------|
G|------------7--9-9-9-9-9-7-----------------------------------------------------| 
D|--9-9-7-7-9----------------7--5-5-5-5-5---5-5-5-5-5---5-h-7-s-9----------------| x2
A|----------------------------------------7-----------7--------------------------|
E|-------------------------------------------------------------------------------|
   

Vers 2:
e|-------------------------------------------------------------------------------|
B|-------------------------------------------------------------------------------|
G|-----------------------------------4-4-4-4-4-7-7-7-7-7---------------------4---|
D|--12-12-12-12---9-s-7---9--7--5-5----------------------5-5-5-5-5-7-7-7-7-7---5-| x1
A|--10-10-10-10--10-s-9--10--9--7-7----------------------------------------------|
E|-------------------------------------------------------------------------------|


e|-------------------------------------------------------------------------------|
B|-------------------------------------------------------------------------------|
G|-----------------------------------5-b-6-b-5--------5-b-6-b-5------------------|
D|--12-12-12-12---9-s-7---9--7--5-5------------7-5--5--------------7-5--------5--| x2 
A|--10-10-10-10--10-s-9--10--9--7-7-------------------------------------5-h-7----|
E|-------------------------------------------------------------------------------|


e|-------------------------------------------------------------------------------|
B|-------------------------------------------------------------------------------|
G|-----------------------------------4-4-4-4-4-7-7-7-7-7---------------------4---|
D|--12-12-12-12---9-s-7---9--7--5-5----------------------5-5-5-5-5-7-7-7-7-7---5-| x1
A|--10-10-10-10--10-s-9--10--9--7-7----------------------------------------------|
E|-------------------------------------------------------------------------------|


Chorus:
e|-------------------------------------------------------------------------------|
B|-------------------------------------------------------------------------------|
G|------------7--9-9-9-9-9-7-----------------------------------------------------| 
D|--9-9-7-7-9----------------7--5-5-5-5-5---5-5-5-5-5---5-h-7-s-9----------------| x4
A|----------------------------------------7-----------7--------------------------|
E|-------------------------------------------------------------------------------|


Bridge:
e|--12-12-12-12-12-15-15-15-15-15-14-14-14-14-14-12-12-12-12-12-10-10-10-10-10---|
B|--12-12-12-12-12-12-12-12-12-12-12-12-12-12-12-15-15-15-15-15-12-12-12-12-12---|
G|--12-12-12-12-12-12-12-12-12-12-12-12-12-12-12-12-12-12-12-12-12-12-12-12-12---| 
D|-------------------------------------------------------------------------------| x4
A|-------------------------------------------------------------------------------|
E|-------------------------------------------------------------------------------|


e|--10-x-x-10-x-x-x-x-10-x-x-10-x-x-10-10-10-10-10-10-10-10-10-10-10-------------|
B|--12-x-x-12-x-x-x-x-12-x-x-12-x-x-12-12-12-12-12-12-12-12-12-12-12-------------|
G|--12-x-x-12-x-x-x-x-12-x-x-12-x-x-12-11-11-11-11-11-11-11-11-11-11-------------| 
D|-------------------------------------------------------------------------------| x8
A|-------------------------------------------------------------------------------|
E|-------------------------------------------------------------------------------|


Chorus:
e|-------------------------------------------------------------------------------|
B|-------------------------------------------------------------------------------|
G|------------7--9-9-9-9-9-7-----------------------------------------------------| 
D|--9-9-7-7-9----------------7--5-5-5-5-5---5-5-5-5-5---5-h-7-s-9----------------| x4
A|----------------------------------------7-----------7--------------------------|
E|-------------------------------------------------------------------------------|


Outro/Solo:
e|-------------------------------------------------------------------------------|
B|-------------------------------------------------------------------------------|
G|----------------------7--------------------------------------------------------| 
D|-------7----7-h-9-p-7---9-p-7----7-h-9-p-7---------------------7---------------|
A|--s-10---10-------------------10-----------10--9-h-10-p-9-h-10-----------------|
E|-------------------------------------------------------------------------------|

e|-------------------------------------------------------------------------------|
B|-------------------------------------------------------------------------------|
G|-------------------------------------------------------------------------------| 
D|------------------7------------------------------------------------------------| x4
A|--9-h-10-p-9-h-10---10-9-------------------------------------------------------|
E|-------------------------------------------------------------------------------|




That's it!
Hope you enjoy!
/Kevin


www.goliathandthegiants.com
www.facebook.com/GoliathandtheGiants
Добавлено: 06.07.2013
Вам также может быть интересно:
Другие материалы по этой песне:
  • Аккорды и текст

Страница создана 06.07.2013
http://primanota.ru/goliath-and-the-giants/disco-chords.htm
Привет, Гость.
Предлагаем пройти революционный курс по гитаре.
Подарок от PrimaNota.Ru, забирай!