PrimaNota.ru - самый крупный в мире бесплатный архив песенных текстов, аккордов, табулатур и нот


Goldfrapp - Rocket - аккорды и текст, видео

Регистрация Запомнить меня
Войти через:  Facebook Google Twitter Vk Yandex Mail.ru

Goldfrapp - Rocket - аккорды и текст, видео

Печатать
Просмотров: 91
Авторы: Will Gregory, Alison Goldfrapp
Авторы музыки: Pascal Gabriel, Will Gregory, Alison Goldfrapp

Rocket
Goldfrapp
---------------------------------------------------------------------------
                Rocket - Goldfrapp
---------------------------------------------------------------------------
Tabbed by: maguri
Tuning: Standard

Goldfrapp
Rocket (2010)
(Alison Goldfrapp/Will Gregory)

From: "Head First"


---------------------------------------------------------------------------
Capo 3rd fret

INTRO
     A/B  Bm        A/B   Bm
e|----------------|----------------|----------------|----------------|
B|----2---3-------|--2-----3-------|----------------|----------------|
G|----2---4-------|--2-----4-------|----------------%----------------|
D|----2---4-------|--2-----4-------|----------------|----------------|
A|2---2---2---2---|2---2---2---2---|----------------|----------------|
E|----------------|----------------|----------------|----------------|


VERSE
     A/B  Bm        A/B   Bm
e|----------------|----------------|----------------|----------------|
B|----2---3-------|--2-----3-------|----------------|----------------|
G|----2---4-------|--2-----4-------|----------------%----------------|
D|----2---4-------|--2-----4-------|----------------|----------------|
A|2---2---2---2---|2---2---2---2---|----------------|----------------|
E|----------------|----------------|----------------|----------------|
     A   Asus4       A   Asus4
e|----------------|----------------|----------------|----------------|
B|----2---3-------|--2-----3-------|----------------|----------------|
G|----2---2-------|--2-----2-------|----------------%----------------|
D|----2---2-------|--2-----2-------|----------------|----------------|
A|0---0---0---0---|0---0---0---0---|----------------|----------------|
E|----------------|----------------|----------------|----------------|


BRIDGE / CHORUS / OUTRO
     D/G  G          D/G  G
e|----2---3-------|--2-----3-------|----------------|----------------|
B|----3---0-------|--3-----0-------|----------------|----------------|
G|----2---0-------|--2-----0-------|----------------%----------------|
D|----------------|----------------|----------------|----------------|
A|----------------|----------------|----------------|----------------|
E|3---3---3---3---|3---3---3---3---|----------------|----------------|
     A/D  D         A/D    D
e|----0---2-------|--0-----2-------|----------------|----------------|
B|----2---3-------|--2-----3-------|----------------|----------------|
G|----2---2-------|--2-----2-------|----------------|----------------|
D|0---0---0---0---|0---0---0---0---|----------------|----------------|
A|----------------|----------------|----------------|----------------|
E|----------------|----------------|----------------|----------------|


---------------------------------------------------------------------------
Capo 3rd fret


INTRO
| A/B Bm | % | % | % |

 A/B Bm    A/B Bm       A/B Bm             A/B Bm
Starting something, I thought could be fun
   A Asus4  A Asus4   A Asus4           A Asus4  
I started something, couldn't go wrong

A/B Bm    A/B Bm       A/B Bm       A/B Bm
Danger, heartache, I'd always knew
A     Asus4 A Asus4  A Asus4      A Asus4  
There's no  winner, in this game


      [G]   D/G   G      D/G  G
But I still wanna know 
            D/G    G      D/G  G
How she got in the door
     A/D D   A/D D   A/D D   A/D D
Uninvited


G D/G G    D/G   G
Oh-oh-oh I got a rocket
G D/G G           D/G    G
Oh-oh-oh you're going on it
D A/D D         A/D   D             A/D D   A/D D
Oh-oh-oh you're never coming back

G D/G G    D/G   G
Oh-oh-oh I got a rocket
G D/G G           D/G    G
Oh-oh-oh you're going on it
D A/D D         A/D   D             A/D D   A/D D
Oh-oh-oh you're never coming back


A/B Bm   A/B Bm    A/B Bm       A/B Bm
Cliches, secrets, stories unfold
   A Asus4  A Asus4  A Asus4       A Asus4  
Flow by pleasure, losing control

A/B Bm    A/B Bm       A/B Bm        A/B Bm
Danger, heartache, something has died
A Asus4   A Asus4        A Asus4           A Asus4  
No good pretending, I'm leaving this time


      [G]   D/G   G      D/G  G
But I still wanna know 
            D/G    G      D/G  G
How she got in the door
     A/D D   A/D D   A/D D   A/D D
Uninvited


G D/G G    D/G   G
Oh-oh-oh I got a rocket
G D/G G           D/G    G
Oh-oh-oh you're going on it
D A/D D         A/D   D             A/D D   A/D D
Oh-oh-oh you're never coming back

G D/G G    D/G   G
Oh-oh-oh I got a rocket
G D/G G           D/G    G
Oh-oh-oh you're going on it
D A/D D         A/D   D             A/D D   A/D D
Oh-oh-oh you're never coming back


G
  You're never coming back
G                                      A/B Bm   
  You're never coming back again no no
A/B          Bm               A/B Bm   A/B Bm 
You're going out on your own

G        D/G   G           D/G   G
  You're never coming back
G        D/G   G           D/G G       A/D D
  You're never coming back again no no
A/D          D                A/D D   A/D D 
You're going out on your own


G D/G G    D/G   G
Oh-oh-oh I got a rocket
G D/G G           D/G    G
Oh-oh-oh you're going on it
D A/D D         A/D   D             A/D D   A/D D
Oh-oh-oh you're never coming back

G D/G G    D/G   G
Oh-oh-oh I got a rocket
G D/G G           D/G    G
Oh-oh-oh you're going on it
D A/D D         A/D   D             A/D D   A/D D
Oh-oh-oh you're never coming back


OUTRO
| D/G G | % | % | % |
| A/D D | % | % | % |

Добавлено: 06.07.2012
Другие материалы по этой песне:

Страница создана 23.02.2012
http://primanota.ru/goldfrapp/rocket-chords.htm
Привет, Гость.
Предлагаем пройти революционный курс по гитаре.
Подарок от PrimaNota.Ru, забирай!