PrimaNota.ru - самый крупный в мире бесплатный архив песенных текстов, аккордов, табулатур и нот


Goldfrapp - Melancholy Sky - аккорды и текст, видео

Регистрация Запомнить меня
Войти через:  Facebook Google Twitter Vk Yandex Mail.ru

Goldfrapp - Melancholy Sky - аккорды и текст, видео

Печатать
Просмотров: 110
Авторы: Will Gregory, Alison Goldfrapp

Melancholy Sky
Goldfrapp
---------------------------------------------------------------------------
                Melancholy Sky - Goldfrapp
---------------------------------------------------------------------------
Tabbed by: maguri
Tuning: Standard

Goldfrapp
Melancholy Sky (2012)
(Alison Goldfrapp/Will Gregory)

From: "The Singles"

The original key is Bb. Because of all these open and split chords, 
I think this beautiful song is best played in A using a capo 
on the 1st fret.

In this tab you'll find:
1. Lyrics and chords
2. A tab of the arpeggio running throughout the song 

---------------------------------------------------------------------------
CHORDS

          E-B-G-D-A-E
Asus2     0-0-2-2-0-x
D6(no3rd) x-0-2-0-x-x
D/A       x-3-2-4-0-x
B7sus4    x-5-2-4-2-x
D/E       x-3-2-2-2-0
Dm6/A     x-3-4-3-0-x

---------------------------------------------------------------------------

INTRO
| Asus2 | Asus2 D6(no3rd) | Asus2 | Asus2 D6(no3rd) |

VERSE 1
A
Late into the night
A        D6(no3rd) A      D6(no3rd)
 Comes a glow like ice
A
Numbers on my phone
A        D6(no3rd) A      D6(no3rd)
 I don't recog -- nize

BRIDGE 1
         F#m       D
There in black and white
                 A          D/A
All your twisted thoughts

VERSE 2
A7              
Brutal starry eyes
D/A                A     D/A 
 Stuck inside your head
A7              
Fallen from the sky
D/A             A     D/A 
 Risen from the dead

BRIDGE 2
           F#m     D 
Views from all the past
             F#m        B7sus4 D/E 
Taken to new heights

CHORUS 1
     A             D/A
Melancholy sky, you made me blue
      A                  A7           D/A
Still hanging on, there's nothing I can do
Dm6/A      A       E7sus4  E
  Not this time

VERSE 3
A7 
There you are again
Dm6/A             A      Dm6/A 
 Calling from the hills
A7 
Haunted and the damned
Dm6/A          A      Dm6/A 
 From imagined worlds

BRIDGE 2
         F#m      D 
It's too late my friend
                    F#m      Esus4 E7 
I don't love you anymore

CHORUS 2
     A              D/A
Melancholy sky, you made me blue
      A                   A7            D/A   Dm6/A
Still hanging on, there's nothing I can do
     A               D/A
Melancholy sky, still hanging on
       A            A7            D/A
You're crazy now, I didn't do you wrong
Dm6        A       E7sus4  E
  Not this time

INTERLUDE
| A7 | Dm6/A | A | Dsus2/A |
| A7 | Dm6/A | A | Dsus2/A {
| A | D/A | A7M   | A7 |
| D/A | Dm6/A | 

CHORUS 2
     A              D/A
Melancholy sky, you made me blue
      A                   A7            D/A   Dm6
Still hanging on, there's nothing I can do
     A                D/A
Melancholy sky, still hanging on
       A            A7            D/A
You're crazy now, I didn't do you wrong
Dm6        [A]
  Not this time

OUTRO
| A | Dm6/A E7 | A | Dm6/A E |
| A | Dm6/A E7sus4 | A

---------------------------------------------------------------------------

ARPEGGIO and chords (capo 1st fret)

INTRO
  Asus2                     D6      Asus2                    D6
e|----------------|----------------|----------------|----------------|
B|----0-----0-----|----0-------0---|----0-----0-----|----0-------0---|
G|--2-----2-----2-|--2-------2---2-|--2-----2-----2-|--2-------2---2-|
D|2-----2-----2---|2-----2-0-------|2-----2-----2---|2-----2-0-------|
A|----------------|----------------|----------------|----------------|
E|----------------|----------------|----------------|----------------|


VERSE 1
  Asus2                    D6       Asus2                    D6
e|----------------|----------------|----------------|----------------|
B|----0-----0-----|----0-------0---|----0-----0-----|----0-------0---|
G|--2-----2-----2-|--2-------2---2-|--2-----2-----2-|--2-------2---2-|
D|2-----2-----2---|2-----2-0-------|2-----2-----2---|2-----2-0-------|
A|----------------|----------------|----------------|----------------|
E|----------------|----------------|----------------|----------------|
  Asus2                   D6      Asus2                   D6
e|----------------|----------------|----------------|----------------|
B|----0-----0-----|----0-------0---|----0-----0-----|----0-------0---|
G|--2-----2-----2-|--2-------2---2-|--2-----2-----2-|--2-------2---2-|
D|2-----2-----2---|2-----2-0-------|2-----2-----2---|2-----2-0-------|
A|----------------|----------------|----------------|----------------|
E|----------------|----------------|----------------|----------------|

BRIDGE 1
  F#m              D                A                D/A
e|----------------|----------------|----------------|----------------|
B|----2-----2-----|----3-----3---3-|----2-----2-----|----3-----3-----|
G|--2-----2-----2-|--2-----2---2---|--2-----2-----2-|--2-----2-----2-|
D|4-----4-----4---|4-----4---------|2-----2-----2---|4-----4-----4---|
A|----------------|----------------|----------------|----------------|
E|----------------|----------------|----------------|----------------|

VERSE 2
  A7               D/A              A                D/A
e|----------------|----------------|----------------|----------------|
B|----2-----2-----|----3-----3-----|----2-----2-----|----3-----3-----|
G|--2-----2-----2-|--2-----2-----2-|--2-----2-----2-|--2-----2-----2-|
D|5-----5-----5---|4-----4-----4---|2-----2-----2---|4-----4-----4---|
A|----------------|----------------|----------------|----------------|
E|----------------|----------------|----------------|----------------|
  A7              D/A            A               D/A
e|----------------|----------------|----------------|----------------|
B|----2-----2-----|----3-----3-----|----2-----2-----|----3-----3-----|
G|--2-----2-----2-|--2-----2-----2-|--2-----2-----2-|--2-----2-----2-|
D|5-----5-----5---|4-----4-----4---|2-----2-----2---|4-----4-----4---|
A|----------------|----------------|----------------|----------------|
E|----------------|----------------|----------------|----------------|

BRIDGE 2
  F#m              D               F#m              B7sus4 D/E
e|----------------|----------------|----------------|----2-----------|
B|----2-----2-----|----3-----3---3-|----2-----2-----|----------5---3-|
G|--2-----2-----2-|--2-----2---2---|--2-----2-----2-|--2-----2-------|
D|4-----4-----4---|4-----4---------|4-----4-----4---|4-----4-----4---|
A|----------------|----------------|----------------|----------------|
E|----------------|----------------|----------------|----------------|

CHORUS 1
  A                D/A              A                A7
e|----------------|----------------|----------------|----------------|
B|----5-----5-----|----5-----5-----|----5-----5-----|----5-----5-----|
G|--6-----6-----6-|--2-----2-----2-|--6-----6-----6-|--6-----6-----6-|
D|7-----7-----7---|4-----4-----4---|7-----7-----7---|5-----5-----6---|
A|----------------|----------------|----------------|----------------|
E|----------------|----------------|----------------|----------------|
  D/A              Dm6              A                E7sus4
e|----------------|----------------|----------------|----------------|
B|----5-----5-----|----3-----3-----|----2-----2-----|----0-----0-----|
G|--2-----2-----2-|--4-----4-----4-|--2-----2-----2-|--2-----2-----2-|
D|4-----4-----4---|3-----3-----3---|2-----2-----2---|0-----0-----0---|
A|----------------|----------------|----------------|----------------|
E|----------------|----------------|----------------|----------------|

VERSE 3
  A7               Dm6/A            A                Dm6/A
e|----------------|----------------|----------------|----------------|
B|----2-----2-----|----0-----0-----|----0-----0-----|----0-----0-----|
G|--2-----2-----2-|--2-----2-----2-|--2-----2-----2-|--2-----2-----2-|
D|5-----5-----5---|3-----3-----3---|2-----2-----2---|3-----3-----3---|
A|----------------|----------------|----------------|----------------|
E|----------------|----------------|----------------|----------------|
  A7               Dm6/A            A                D/A        
e|----------------|----------------|----------------|----------------|
B|----2-----2-----|----3-----3-----|----0-----0-----|----0-----0-----|
G|--2-----2-----2-|--2-----2-----2-|--2-----2-----2-|--2-----2-----2-|
D|5-----5-----5---|3-----3-----3---|2-----2-----2---|3-----3-----2---|
A|----------------|----------------|----------------|----------------|
E|----------------|----------------|----------------|----------------|

CHORUS 2
  A                D/A              A               A7
e|----------------|----------------|----------------|----------------|
B|----5-----5-----|----5-----5-----|----5-----5-----|----5-----5-----|
G|--6-----6-----6-|--2-----2-----2-|--6-----6-----6-|--6-----6-----6-|
D|7-----7-----7---|4-----4-----4---|7-----7-----7---|5-----5-----5---|
A|----------------|----------------|----------------|----------------|
E|----------------|----------------|----------------|----------------|
  D/A              Dm6/A            A                D/A        
e|----------------|----------------|----------------|----------------|
B|----5-----3-----|----3-----3-----|----5-----5-----|----5-----5-----|
G|--2-----2-----2-|--4-----4-----4-|--6-----6-----6-|--2-----2-----2-|
D|4-----4-----4---|3-----3-----3---|7-----7-----7---|4-----4-----4---|
A|----------------|----------------|----------------|----------------|
E|----------------|----------------|----------------|----------------|
  A                A7               D/A              Dm6/A           
e|----------------|----------------|----------------|----------------|
B|----5-----5-----|----5-----5-----|----5-----3-----|----3-----3-----|
G|--6-----6-----6-|--6-----6-----6-|--2-----2-----2-|--4-----4-----4-|
D|7-----7-----7---|5-----5-----5---|4-----4-----4---|3-----3-----3---|
A|----------------|----------------|----------------|----------------|
E|----------------|----------------|----------------|----------------|
  A                E7sus4   E
e|----------------|----------------|
B|----2-----2-----|----0-----0-----|
G|--2-----2-----2-|--2-----1-----1-|
D|2-----2-----2---|0-----0-----2---|
A|----------------|----------------|
E|----------------|----------------|

INTERLUDE
  A7               Dm6/A            A                Dm6/A
e|----------------|----------------|----------------|----------------|
B|----2-----2-----|----3-----3-----|----2-----2-----|----3-----3-----|
G|--2-----2-----2-|--4-----4-----4-|--2-----2-----2-|--4-----4-----4-|
D|5-----5-----5---|3-----3-----3---|2-----2-----2---|3-----3-----3---|
A|----------------|----------------|----------------|----------------|
E|----------------|----------------|----------------|----------------|
  A7               Dm6/A            A                Dm6/A     D/E
e|----------------|----------------|----------------|----------------|
B|----2-----2-----|----3-----3-----|----2-----2-----|----3-----0-----|
G|--2-----2-----2-|--4-----4-----4-|--2-----2-----2-|--2-----2-----2-|
D|5-----5-----5---|3-----3-----3---|2-----2-----2---|3-----3-----2---|
A|----------------|----------------|----------------|----------------|
E|----------------|----------------|----------------|----------------|
  A                D/A              A7M              A7
e|----------------|----------------|----------------|----------------|
B|----5-----5-----|----5-----5-----|----5-----5-----|----5-----5-----|
G|--6-----6-----6-|--2-----2-----2-|--6-----6-----6-|--6-----6-----6-|
D|7-----7-----7---|4-----4-----4---|6-----6-----6---|5-----5-----5---|
A|----------------|----------------|----------------|----------------|
E|----------------|----------------|----------------|----------------|
  D/A              Dm6      
e|----------------|----------------|
B|----3-----3-----|----3-----3-----|
G|--2-----2-----2-|--4-----4-----4-|
D|4-----4-----4---|3-----3-----3---|
A|----------------|----------------|
E|----------------|----------------|

OUTRO
  A                Dm6    E7        A                Dm6    E7      
e|----------------|----------------|----------------|----------------|
B|----2-----2-----|----0-----0-----|----2-----2-----|----0-----0-----|
G|--2-----2-----2-|--2-----1-----1-|--2-----2-----2-|--2-----1-----1-|
D|2-----2-----2---|0-----0-----0---|2-----2-----2---|0-----0-----0---|
A|----------------|----------------|----------------|----------------|
E|----------------|----------------|----------------|----------------|
  A                Dm6     E7sus4   A
e|----------------|----------------|0
B|----2-----2-----|----0-----0-----|2
G|--2-----2-----2-|--2-----2-----2-|2
D|2-----2-----2---|0-----0-----0---|2
A|----------------|----------------|0
E|----------------|----------------|-


Добавлено: 21.02.2012
Другие материалы по этой песне:
  • Аккорды и текст

Страница создана 21.02.2012
http://primanota.ru/goldfrapp/melancholy-sky-chords.htm
Привет, Гость.
Предлагаем пройти революционный курс по гитаре.
Подарок от PrimaNota.Ru, забирай!