PrimaNota.ru - самый крупный в мире бесплатный архив песенных текстов, аккордов, табулатур и нот


Goldford - Upside Down - таба, видео

Регистрация Запомнить меня
Войти через:  Facebook Google Twitter Vk Yandex Mail.ru

Goldford - Upside Down - таба, видео

Печатать
Просмотров: 78
-------------------------------------------------------------------------------
                             UPSIDE DOWN - GoldFord
-------------------------------------------------------------------------------
Tabbed by: roweboat

Tuning: Standard

This is a pretty neat song by Chicago-based band GoldFord. It's pretty easy, as the intro, verse, chorus, and
bridge are all virtually the same thing, so just have fun improvising and making it your own! One thing I
like to do to make it a little more interesting to play is to incorporate the intro that John Mayer does in 
the song Man On The Side from the song Lenny as such: https://www.youtube.com/watch?v=Z7EirzYiiIQ


Intro:
e|------------------|-----------|---------------|-----------|
B|----7h8---7--5~~--|-------5---|---3---1---3~~-|-----------|
G|----7-----7--5~~--|-------5---|---0---0---0~~-|-----------|
D|----7h9---7--5~~--|-------5---|---0---2---0~~-|x3---------|
A|----7-----5--3~~--|---5/7-----|---2---0---x~~-|-----------|
E|------------------|-----------|-----------3~~-|-----------|


Verse:
e|------------------|---------------|-----------|
B|----7h8---7--5~~--|---3---1---3~~-|-----------|
G|----7-----7--5~~--|---0---0---0~~-|-----------|
D|----7h9---7--5~~--|---0---2---0~~-|x3---------|x2
A|----7-----5--3~~--|---2---0---x~~-|-----------|
E|------------------|-----------3~~-|-----------|


Pre-Chorus:
e|----------------------------------------------------------------------------------------------|
B|----------------------------------------------------------------------------------------------|
G|----------0-----------0-----------0--------------0-----------0------------0-----------0-------|
D|-------4-----4-----4-----4-----4-----4--------4-----4-----4-----4------4-----4-----4-----4----|
A|----3-----------3-----------5-----------5---------------------------3-----------5-------------|
E|-------------------------------------------0-----------0--------------------------------------|
   ^This is what they actually play in the song, but if you're playing by yourself, it fills out the sound
    more if you play these chords:
e|---------------------|
B|----0-----0-----0----|
G|----0-----0-----0----|
D|----4-----4-----4----|
A|----3-----5-----x----|
E|----------------0----|  
    And do alternating picking on the A D G and B strings


Chorus:
e|------------------|---------------|-----------|
B|----7h8---7--5~~--|---3---1---3~~-|-----------|
G|----7-----7--5~~--|---0---0---0~~-|-----------|
D|----7h9---7--5~~--|---0---2---0~~-|x3---------|x2
A|----7-----5--3~~--|---2---0---x~~-|-----------|
E|------------------|-----------3~~-|-----------|


Interlude:
e|------------------|-----------|---------------|-----------|
B|----7h8---7--5~~--|-------5---|---3---1---3~~-|-----------|
G|----7-----7--5~~--|-------5---|---0---0---0~~-|-----------|
D|----7h9---7--5~~--|-------5---|---0---2---0~~-|x3---------|
A|----7-----5--3~~--|---5/7-----|---2---0---x~~-|-----------|
E|------------------|-----------|-----------3~~-|-----------|


Bridge:
   
      F                       C                          G     
e|----------3-----------3-----------3-----------3--------------3-----------3-------|
B|-------1-----1-----1-----1-----1-----1-----1-----1--------------3-----------3----|
G|----------------------------------------------------------0-----------0----------|
D|----3-----------3-----------2-----------2-----------2----------------------------|
A|---------------------------------------------------------------------------------|
E|-------------------------------------------------------3-----------3-------------|

e|----------3-----------3-----------3-----------3----------|
B|-------1-----1-----1-----1-----1-----1-----1-----1-------|
G|---------------------------------------------------------|
D|----3-----------3-----------2-----------2----------------|
A|---------------------------------------------------------|
E|---------------------------------------------------------|
   ^Same suggestion as in the pre-chorus


Enjoy!


************************************
| /   slide up
| h   hammer-on
| ~   vibrato
| x   Mute note
************************************
Добавлено: 01.12.2015
Другие материалы по этой песне:
  • Аккорды и текст

Страница создана 01.12.2015
http://primanota.ru/goldford/upside-down-chords.htm
Привет, Гость.
Предлагаем пройти революционный курс по гитаре.
Подарок от PrimaNota.Ru, забирай!