PrimaNota.ru - самый крупный в мире бесплатный архив песенных текстов, аккордов, табулатур и нот


Goldfinger - Someone Else - текст песни, таба, видео

Регистрация Запомнить меня
Войти через:  Facebook Google Twitter Vk Yandex Mail.ru

Goldfinger - Someone Else - текст песни, таба, видео

Печатать
Просмотров: 137
Date: Wed, 3 May 2000 20:36:40 -0400
From: "Justin Goldner" 
Subject: g/goldfinger/someone_else.tab

Goldfinger - Someone Else
Transcribed by Justin Goldner
goldentoad@hotmail.com


Standard E Tuning

Note: This song's only available on their promotional 7" vinal, sup-
posedly released with Stomping Ground (although I can't seem to find
a copy).  If anyone has it or the other three songs from the record
in MP3 or Real Audio format, please contact me.



Layout:

Intro
Verse- D A Bm G
Prechorus- F G D
Chorus- D Em F#m G, D G A
Mini-Solo
Verse
Prechorus
Chorus
Solo
Prechorus
Chorus (1st line w/o guitar)
Chorus
Outro




Intro

E-------------------------------------------------2/10\2---------
B----------------------------------------------------------------
G----------------------------------------------------------------
D---4-4----4-4----4-4---5\4-0-2/4--4-4-0---0---------------------
A-------5------5------5------------------2----7-5-4--------------
E----------------------------------------------------------------

E---2-2----2-2----2-2----3p2---0h2--2-2--------------------------
B-------3------3------3------3----------3p0h3--3-5--3------2/5---
G------------------------------------------------------2/6-2/6---
D------------------------------------------------------2/6-------
A----------------------------------------------------------------
E----------------------------------------------------------------





Verse

    D  A  Bm G
E----------------
B----------------
G---7------------
D---7--7--9--5---
A---5--7--9--5---
E------5--7--3---


* 2nd verse, after "...for a year or two" instead of the G play:
E-----------
B-----------
G-----------
D---5-4-2---
A---5-4-2---
E---3-2-0---


*After the above part, play this riff
in the background until the end of the verse
E-----------------
B---7-5---7-5-----
G-----------------
D-----------------
A-----------------
E-----------------





Pre-Chorus

    F  G  D
E-------------- }
B-------------- } *1st time- play once then first two chords
G---------7---- } *2nd time- play twice then first two chords
D---3--5--7---- } *3rd time- play once then first two chords
A---3--5--5---- }
E---1--3------- }


Pre-Chorus Riffs

Guitar - 2nd prechorus - after first 3 chords
E---10-10-------10-10-------10-------
B---------10-10-------10-10-----10---
G------------------------------------
D------------------------------------
A------------------------------------
E------------------------------------


Bass - 2nd prechorus - after first 3 chords
G------------------
D------------0h4---
A-------0h2--------
E---0h2------------


Guitar - 2nd prechorus - after second 3 chords
E------------------------
B---7/8-10-10-10-10-10---
G------------------------
D------------------------
A------------------------
E------------------------


Bass - 2nd prechorus - after second 3 chords
G------------------
D---4-4---55-66----
A------------------
E------------------


Guitar - 3rd prechorus - during first 3 chords (right after solo)
E-------------------3/10---
B---6/8\6----8-------------
G--------------7-----------
D--------------------------
A--------------------------
E--------------------------


Bass - 3rd prechorus - after first 3 chords
G------------------
D---4-4-5-4-2-4----
A------------------
E------------------


Guitar - 3rd prechorus - during 2nd two chords
E------------5--------------------
B---6/10\6----6-88-8-1010-10-12---
G---------------------------------
D---------------------------------
A---------------------------------
E---------------------------------





Chorus
* They do a number of things with the chords here, I'm not going
to list all of them; they're pretty simple.

    D  Em F#mG  D  G  A
E-------------------------
B-------------------------
G---7-----------7---------
D---7--2--4--5--7--5--7---
A---5--2--4--5--5--5--7---
E------0--2--3-----3--5---


*During second chorus, play this riff:

E-----------------
B---7-5---7-5-----
G-------7-----7---
D-----------------
A-----------------
E-----------------

*First line of 3rd chorus, don't play, rest of 3rd chorus play barred




Mini-Solo (after first chorus)

E---------------2-2-0-----2-2-0-----2-2--3--5/9--1010---10------
B---10'/8/7/5---------3---------3--------------------10----10---
G---------------------------------------------------------------
D---------------------------------------------------------------
A---------------------------------------------------------------
E---------------------------------------------------------------


E-----10-----------------------
B---10--10--------10-----------
G------------------------------
D----------7h9-7---------------
A------------------------------
E------------------------------




Solo (after second chorus)

E---------------------------------------------5555--
B---10\8-7\5------------3r2-----------5-7777--5555--
G--------------------------2-4r2h4r2----7777--6666--
D---------------------------------------------------
A-----------0--0-0h2-0------------------------------
E---------------------------------------------------

E-------7-5-------------------------------------------
B---777---h7r5---------3-------------3--2-------------
G--------------7----2-----2-4r2-2--2-------2-4--2--2--
D--------------------00-00-0---0-00-0-00-00-0-00-00-0-
A-----------------------------------------------------
E-----------------------------------------------------

E----323--202-3--2--3--5----9----10-12r10-10---
B----------------------------------------------
G---4----2----4--2--4--6--7----9----11---------
D----------------------------------------------
A----------------------------------------------
E----------------------------------------------




Outro

E-------------------
B-------------------
G-------7-----7x7---
D---7---7-----7x7---
A---7---5-----5x5---
E---5---------------
Добавлено: 19.06.2012
Другие материалы по этой песне:
  • Аккорды и текст

Страница создана 19.06.2012
http://primanota.ru/goldfinger/someone-else-chords.htm
Привет, Гость.
Предлагаем пройти революционный курс по гитаре.
Подарок от PrimaNota.Ru, забирай!