PrimaNota.ru - самый крупный в мире бесплатный архив песенных текстов, аккордов, табулатур и нот


Goldfinger - Nothing To Prove - аккорды и текст, таба, бас-таба, видео

Регистрация Запомнить меня
Войти через:  Facebook Google Twitter Vk Yandex Mail.ru

Goldfinger - Nothing To Prove - аккорды и текст, таба, бас-таба, видео

Печатать
Просмотров: 170
Nothing To Prove
Goldfinger
Date: Thu, 2 Jul 1998 13:55:02 -0700 (PDT)
From: JEFF JACKSON 
Subject: g/goldfinger/nothing_to_prove.crd

band: Goldfinger
song: "nothing to prove"
album: Goldfinger (1996)

written by: john feldman
                 &
           charlie paulson

transcribed by: j. jackson

i listened to this song many times and i'm pretty sure
i got this right.

key:
~     let ring
/     slide up
\     slide down
=======================================================
(standard tuning)

INTRO/BREAK:

|-------------------------|
|-------------------------|
|-4---6-------7-6-4-------|
|-4-4-6-6-6-6-7-6-4-4-4-4-|
|-2-4-4-6-6-6-5-4-2-4-4-4-|
|---2---4-4-4-------2-2-2-|

|-----------------|
|-----------------|
|-4---6-------7-6-|
|-4-4-6-6-6-6-7-6-|
|-2-4-4-6-6-6-5-4-|
|---2---4-4-4-----|

(both of these 2x)

VERSE #1:

|-------------------------------------------------|
|-------------------------------------------------|
|-------------------------------------------------|
|-------------------------------------------------|
|-------------------------------------------------|
|-------------------------------------------------|
fly off the handle...

|---------------------------------------------------|
|---------------------------------------------------|
|-4-4-4-4-4-4-4-4-4-4-4-4-4-4-4-4-4-4-4-4-4-4-4-4-4-|
|---------------------------------------------------|
|---------------------------------------------------|
|---------------------------------------------------|

|---------------------------------------------------|
|---------------------------------------------------|
|-4-4-4-4-4-4-4-4-4-4-4-4-4-4-4-4-4-4-4-4-4/6-------|
|---------------------------------------------4~~~~-|
|---------------------------------------------------|
|---------------------------------------------------|

CHORUS:

|-------------------------|
|-------------------------|
|-9-8-4-------8-8-6-6-6-6-|
|-9-8-4-4-4-4-8-8-6-6-6-6-|
|-7-6-2-4-4-4-6-6-4-4-4-4-|
|-------2-2-2-------------|
still i'm sitting...

|-------------|
|-------------|
|-9-9-9-------|
|-9-9-9-4-4---|
|-7-7-7-4-4---|
|-------2-2---|
nothing to prove...

|----------------------|
|----------------------|
|-14-14-14\9-9-9-------|
|-14-14-14\9-9-9-9-9-9-|
|-12-12-12\7-7-7-9-9-9-|
|----------------7-7-7-|
nothing to prove...

|------------------------------|
|------------------------------|
|------------------------------|
|-4~~~~~~~~~~~~~~~~~~~~~~~~~~~~|
|-4~~~~~~~~~~~~~~~~~~~~~~~~~~~~|
|-2~~~~~~~~~~~~~~~~~~~~~~~~~~~~|
still i'm fighting...

|---------------------|
|---------------------|
|---------------------|
|-7-------------------|
|-7-------------------|
|-5-------------------|

VERSE #2:

|---------------------------------|
|---------------------------------|
|-----------------6-6-6-6/9-9-9-9-|
|-9-9-9-9-7-7-7-7-6-6-6-6/9-9-9-9-|
|-9-9-9-9-7-7-7-7-4-4-4-4/7-7-7-7-|
|-7-7-7-7-5-5-5-5-----------------|
i hear your car...

|---------------------------------|
|---------------------------------|
|-----------------6-6-6-6---------|
|-9-9-9-9-7-7-7-7-6-6-6-6-4-4-4-4-|
|-9-9-9-9-7-7-7-7-4-4-4-4-4-4-4-4-|
|-7-7-7-7-5-5-5-5---------2-2-2-2-|

(THEN CHORUS)
(BREAK)

VERSE #3:

|----------------------------------------------------|
|----------------------------------------------------|
|----------------------------------------------------|
|----------------------------------------------------|
|----------------------------------------------------|
|----------------------------------------------------|
fly off the handle...

|----------------------------------------------------|
|----------------------------------------------------|
|-----------------6-6-6-6/9-9-9-9--------------------|
|-9-9-9-9-7-7-7-7-6-6-6-6/9-9-9-9--------------------|
|-9-9-9-9-7-7-7-7-4-4-4-4/7-7-7-7--------------------|
|-7-7-7-7-5-5-5-5------------------------------------|

|----------------------------------------------------|
|----------------------------------------------------|
|-----------------6-6-6-6----------------------------|
|-9-9-9-9-7-7-7-7-6-6-6-6-4-4-4-4--------------------|
|-9-9-9-9-7-7-7-7-4-4-4-4-4-4-4-4--------------------|
|-7-7-7-7-5-5-5-5---------2-2-2-2--------------------|

|----------------------------------------------------|
|----------------------------------------------------|
|----------------------------------------------------|
|-4-4-4-4-4-4-4-4-4-4-4-4-4-4-4-4-4-4-4-4-4-4-4-4-4--|
|-4-4-4-4-4-4-4-4-4-4-4-4-4-4-4-4-4-4-4-4-4-4-4-4-4--|
|-2-2-2-2-2-2-2-2-2-2-2-2-2-2-2-2-2-2-2-2-2-2-2-2-2--|

(THEN CHORUS)

OUTRO:

|------------|
|------------|
|-4---6------|
|-4-4-6-6-6\-|
|-2-4-4-6-6\-|
|---2---4-4\-|
        me!!

that is all of it. i hope you can understand it.
cuz otherwise i just wasted my time.
what else............
oh yeah!!
Добавлено: 21.06.2012
Другие материалы по этой песне:
  • Аккорды и текст

Страница создана 28.02.2012
http://primanota.ru/goldfinger/nothing-to-prove-chords.htm
Привет, Гость.
Предлагаем пройти революционный курс по гитаре.
Подарок от PrimaNota.Ru, забирай!