PrimaNota.ru - самый крупный в мире бесплатный архив песенных текстов, аккордов, табулатур и нот


Goldfinger - Miles Away - текст песни, таба, бас-таба, видео

Регистрация Запомнить меня
Войти через:  Facebook Google Twitter Vk Yandex Mail.ru

Goldfinger - Miles Away - текст песни, таба, бас-таба, видео

Печатать
Просмотров: 203
ok this is my first tab so it may not be perfect...constructive critisism is welcome


(Verse 1)
               (B5)                      (E5)
e|-------------------------------------------------------------|
B|-------------------------------------------------------------|
G|-------------4444444444444444--------------------------------|
D|-------------4444444444444444-----------2222222222222222-----|
A|-------------2222222222222222-----------2222222222222222-----|
E|----------------------------------------0000000000000000-----|
   How deep is your love? How deep is the ocean?

                 (F#5)                    (B5)
e|-------------------------------------------------------------|
B|-------------------------------------------------------------|
G|----------------------------------------4444444444444444-----|
D|----------------4444444444444444--------4444444444444444-----|
A|----------------4444444444444444--------2222222222222222-----|
E|----------------2222222222222222-----------------------------|
  How deep is the sea?___ And how deep is my love?______

               (B5)                       (E5)
e|-------------------------------------------------------------|
B|-------------------------------------------------------------|
G|-------------4444444444444444--------------------------------|
D|-------------4444444444444444-----------2222222222222222-----|
A|-------------2222222222222222-----------2222222222222222-----|
E|----------------------------------------0000000000000000-----|
   How deep is your love? How deep is the ocean?

                  (F#5)                   (B5)
e|-------------------------------------------------------------|
B|-------------------------------------------------------------|
G|----------------------------------------4444444444444444-----|
D|----------------4444444444444444--------4444444444444444-----|
A|----------------4444444444444444--------2222222222222222-----|
E|----------------2222222222222222-----------------------------|
  How deep is the sea?___ And how deep is my love?______

(Chorus)
                            (B5)              (C#5)
e|-------------------------------------------------------------|
B|-------------------------------------------------------------|
G|--------------------------4444444444444444--6666666666666666-|
D|--------------------------4444444444444444--6666666666666666-|
A|--------------------------2222222222222222--4444444444444444-|
E|---(\\\\\pick-slide\\\\)-------------------------------------|
                It's Miles Away_______ Miles Away

           (E5)            (B5)
e|------------------------------------------------------------|
B|------------------------------------------------------------|
G|---------99999999999999994444444444444444-------------------|
D|---------99999999999999994444444444444444-------------------|
A|---------77777777777777772222222222222222-------------------|
E|------------------------------------------------------------|
    Miles Away_Yeah miles away_____________________

(Solo) - listen to song for the exact rhythm

e|------------------------------------------------------------|
B|------------------------------------------------------------|
G|------------------------------------------------------------|
D|------------------------------------------------------------|
A|---6-6-4-4-2-2--------6-6-2-2-4---2-------------------------|
E|--------------------------------4-------4-4-4-4-4-2---------|

e|------------------------------------------------------------|
B|------------------------------------------------------------|
G|------------------------------------------------------------|
D|------------------------------------------------------------|
A|------------4-2---------------------------------------------|
E|----2-2-2-4-------------------------------------------------|


(Verse 2)

How much do you want?
and how far can I take you?
How bad does this hurt?
e|------------------------------------------------------------|
B|------------------------------------------------------------|
G|-----------------------6-4\\\\\\\\\\\\----------------------|
D|---------------------6--------------------------------------|
A|------------------------------------------------------------|
E|------------------------------------------------------------|

How much do I want you?

(Verse 3)

           P.M. ****************       ****************
                (B5)                   (E5)
e|------------------------------------------------------------|
B|------------------------------------------------------------|
G|------------------------------------------------------------|
D|--------------4444444444444444------------------------------|
A|--------------2222222222222222-------2222222222222222-------|
E|-------------------------------------0000000000000000-------|
  How blind can i be?    So when can i see you?

           P.M. ****************
                (F#5)
e|------------------------------------------------------------|
B|------------------------------------------------------------|
G|------------------------------------------------------------|
D|------------------------------------------------------------|
A|--------------4444444444444444------------------------------|
E|--------------2222222222222222------------------------------|
  Will it ever be?               And how deep is my love?

(Chorus) x2
                            (B5)              (C#5)
e|-------------------------------------------------------------|
B|-------------------------------------------------------------|
G|--------------------------4444444444444444--6666666666666666-|
D|--------------------------4444444444444444--6666666666666666-|
A|--------------------------2222222222222222--4444444444444444-|
E|---(\\\\\pick-slide\\\\)-------------------------------------|
                It's Miles Away_______ Miles Away

           (E5)            (B5)
e|------------------------------------------------------------|
B|------------------------------------------------------------|
G|---------99999999999999994444444444444444-------------------|
D|---------99999999999999994444444444444444-------------------|
A|---------77777777777777772222222222222222-------------------|
E|------------------------------------------------------------|
    Miles Away_Yeah miles away_____________________

LETS GO!! (listen for rhythm)
      (B5)            (C#5)           (E5)
e|------------------------------------------------------------|
B|------------------------------------------------------------|
G|----4-4-4-4-4-4-4-4-6-6-6-6-6-6-6-6-9-9-9-9-9-9-9-9---------|
D|----4-4-4-4-4-4-4-4-6-6-6-6-6-6-6-6-9-9-9-9-9-9-9-9---------|
A|----2-2-2-2-2-2-2-2-4-4-4-4-4-4-4-4-7-7-7-7-7-7-7-7---------|
E|------------------------------------------------------------|

      (B5)             (Eb5)     (C#5) (E5)
e|------------------------------------------------------------|
B|------------------------------------------------------------|
G|----4-4-4-4-4-4-4-4--8-8-8-8-8-8-6-8-9-9-9-9-9-9-9-9--------|
D|----4-4-4-4-4-4-4-4--8-8-8-8-8-8-6-8-9-9-9-9-9-9-9-9--------|
A|----2-2-2-2-2-2-2-2--6-6-6-6-6-6-4-6-7-7-7-7-7-7-7-7--------|
E|------------------------------------------------------------|

      (G#5)                     (B5)
e|------------------------------------------------------------|
B|------------------------------------------------------------|
G|----12-12-12-12-12-12-12-12---1616161616161616--------------|
D|----12-12-12-12-12-12-12-12---1616161616161616--------------|
A|----11-11-11-11-11-11-11-11---1414141414141414--------------|
E|------------------------------------------------------------|
                                ^^^^^^^^^^^^^^^^
                        Strum this part as fast as possible

(Chorus)x2 (play normal chorus first time - then as written here the second time...its 
same except fot the last chord isnt played the second time)
                            (B5)              (C#5)
e|-------------------------------------------------------------|
B|-------------------------------------------------------------|
G|--------------------------4444444444444444--6666666666666666-|
D|--------------------------4444444444444444--6666666666666666-|
A|--------------------------2222222222222222--4444444444444444-|
E|-------------------------------------------------------------|
                It's Miles Away_______ Miles Away
           (E5)
e|------------------------------------------------------------|
B|------------------------------------------------------------|
G|---------9999999999999999-----------------------------------|
D|---------9999999999999999-----------------------------------|
A|---------7777777777777777-----------------------------------|
E|------------------------------------------------------------|
    Miles Away_____________Yeah miles away____________________


Like i said this is my first ever tab so it may not be perfect....any suggestions of 
i can add or correct are welcome.....and credit will be given to those who help =]

| /  slide up
| \  slide down
| h  hammer-on
| p  pull-off
| ~  vibrato
| +  harmonic
| x  Mute note
| *  Palm Mute
============================================================================
Добавлено: 18.05.2012
Другие материалы по этой песне:

Страница создана 09.03.2012
http://primanota.ru/goldfinger/miles-away-chords.htm
Привет, Гость.
Предлагаем пройти революционный курс по гитаре.
Подарок от PrimaNota.Ru, забирай!