PrimaNota.ru - самый крупный в мире бесплатный архив песенных текстов, аккордов, табулатур и нот


Goldfinger - Happy - аккорды и текст, таба, бас-таба, видео

Регистрация Запомнить меня
Войти через:  Facebook Google Twitter Vk Yandex Mail.ru

Goldfinger - Happy - аккорды и текст, таба, бас-таба, видео

Печатать
Просмотров: 253
Уроки эстрадного вокала в Санкт-Петербурге
Happy
Goldfinger


Artist:   Goldfinger
Song:     Happy

tuning: standard

notice the way of playing E, you donґt have to do it, but I think it sounds much better.

abd donґt forgett the inserts Y and Z ( I just called them so, but weh you play them you
play them together, which means that Y and Z = one insert).

If you donґt understand my advices just listen to the song and you will see what I mean.

So and now have some fun:

intro:

E-----X-X-0-0-0---7---5-5-5---X-X--------------
H-----X-X-0-0-0---7---5-5-5---X-X--------------
G-----X-X-9-9-9---8---6-6-6---X-X--14-14-14-14-
D-----X-X-9-9-9---9---7-7-7---X-X--14-14-14-14-
A-----X-X-7-7-7---9---7-7-7---X-X--12-12-12-12-
E-----X-X-0-0-0---7---5-5-5---X-X--------------
                                            /
                                           /
                                          /
                                     insert Y



E-------------------X-X-0-0-0---7----------X-X-
H-------------------X-X-0-0-0---7----------X-X-
G-----13-13-13-13---X-X-9-9-9---8---7-7-7--X-X-
D-----13-13-13-13---X-X-9-9-9---9---7-7-7--X-X-
A-----11-11-11-11---X-X-7-7-7---9---5-5-5--X-X-
E-------------------X-X-0-0-0---7----------X-X-
              /
             /
            /
        insert Z






E------------------------------
H------------------------------
G-----14-14-14-14--13-13-13-13-
D-----14-14-14-14--13-13-13-13-
A-----12-12-12-12--11-11-11-11-
E------------------------------







vers:

E   B   A   A   B   ---------------  3 times

E   B   A   A

Fis   Gis  A   A   insert Y and Z

E   B   A   A

Fis   Gis  A   A   insert Y and Z



chorus:   = intro


I hope my ear could help you :-)
  

Добавлено: 25.08.2013
Другие материалы по этой песне:
  • Аккорды и текст

Страница создана 11.04.2012
http://primanota.ru/goldfinger/happy-chords.htm
Привет, Гость.
Предлагаем пройти революционный курс по гитаре.
Подарок от PrimaNota.Ru, забирай!