PrimaNota.ru - самый крупный в мире бесплатный архив песенных текстов, аккордов, табулатур и нот


Goldenhorse - Wake Up Brother - бас-таба, видео

Регистрация Запомнить меня
Войти через:  Facebook Google Twitter Vk Yandex Mail.ru

Goldenhorse - Wake Up Brother - бас-таба, видео

Печатать
Просмотров: 176
Band: Goldenhorse
Tab: Wake Up Brother Intro
Tabbed by: Reuben Shaw


Standard Tuning EADG
Intro
G|----------------------------------------------------|
D|----------------------------------------------------|   x1
A|5r--5-5-5--5-5-5-5r--5-5-5--5-5-5-5r--5-5-5--5-5-5--|
E|--------------------------------------------------5-|


G|---------------|  
D|---------------|    x5
A|5-5-5--5-5-5---|
E|------------5r-|


G|--------------|
D|--------------|    x4
A|5-5-5---------|
E|------2-3-4-5-|



G|--------------------------------------------------------|
D|------------------------------5-3-1-00-------------35---|   x1
A|555-5-5-5555-333-3-3-3333-444-------------------3h5--53-|
E|---------------------------------------5-6-7r-8---------|


G|---------------------------------------------------------|
D|----------------------------------------------------35---|    x1
A|555-5-5-5555-333-3-3-3333-444-4-4-4444-----------3h5--53-|
E|---------------------------------------55-6-7r-8---------|


And the singing starts..

Fun little riff, nice and easy. Enjoy!
Добавлено: 18.07.2012
Другие материалы по этой песне:
  • Аккорды и текст

Страница создана 18.07.2012
http://primanota.ru/goldenhorse/wake-up-brother-chords.htm
Привет, Гость.
Предлагаем пройти революционный курс по гитаре.
Подарок от PrimaNota.Ru, забирай!