PrimaNota.ru - самый крупный в мире бесплатный архив песенных текстов, аккордов, табулатур и нот


Goldenhorse - Run Run Run - таба, видео

Регистрация Запомнить меня
Войти через:  Facebook Google Twitter Vk Yandex Mail.ru

Goldenhorse - Run Run Run - таба, видео

Печатать
Просмотров: 178
Goldenhorse - Run run run
Tabbed by: Neil Manewell - nma45@student.canterbury.ac.nz

This is my first tab, sorry if it's a bit crap. Some things aren't 100% but sound OK. 

Chords:
A     x02220
E7/A  x02130
F#m   244222
A#    688766
C#    x46664
B     769877
G#    466544

Intro:

   A                         E7/A
E|--0-----0-----0-----0---|--0-----0-----0-----0---|
B|---2-----2-----2-----2--|---3-----3-----3-----3--|
G|----2-----2-----2-----2-|----1-----1-----1-----1-|
D|-----------2-----------2|-----------2-----------2|
A|-0----0------0-----0----|-0-----0-----0-----0----|
E|------------------------|------------------------|

   F#m
E|--4--4--2--2--4--4--0-0-|
B|------------------------|
G|------------------------|
D|------------------------|
A|------------------------|
E|-2--2--2--2--2--2--2--2-|


Verse:

A
You call me

E7/A                            F#m
And I run run run right to your heart

A
You come near

E7/A                                  F#m
And I run run run right to your heart


Chorus:

A#       C#   B
Like the boy before you

Fill 1:
 e-|--------0--------|
 B-|-7--7h8---7------|
 G-|------------7----|
 D-|--------------9--|
 A-|-----------------|
 E-|-----------------|

F#m       E
Hears the world

B       E
calling as he goes

B    E
like the lady in

B         D       G#
white she must be fun....

Interlude:

A        F#m
A        F#m

Go nuts with this....Play with plenty of overdrive...

 e-|-----------------16|
 B-|-15-------15-------|
 G-|-18------b19-------|
 D-|-------------------|
 A-|-------------------|
 E-|-------------------|

A#       C#     B
Like the days we used to have 

     F#m      E
Don't leave me now

  B         E
I love you, love you so

 B        E
like the lady in 

 B        D       G#
white she must be fun....

Outro:

A
Come back I can't be without you

A
Come back I can't be without you

G
Come back I can't be without you

E
Come back I can't be without you
Добавлено: 22.03.2012
Вам также может быть интересно:
Другие материалы по этой песне:
  • Аккорды и текст

Страница создана 22.03.2012
http://primanota.ru/goldenhorse/run-run-run-chords.htm
Привет, Гость.
Предлагаем пройти революционный курс по гитаре.
Подарок от PrimaNota.Ru, забирай!