PrimaNota.ru - самый крупный в мире бесплатный архив песенных текстов, аккордов, табулатур и нот


Golden State - World On Fire - аккорды и текст, видео

Регистрация Запомнить меня
Войти через:  Facebook Google Twitter Vk Yandex Mail.ru

Golden State - World On Fire - аккорды и текст, видео

Печатать
Просмотров: 125
World On Fire
Golden State
-------------------------------------------------------------------------------
                      "World On Fire" by Golden State
                         From the album "Division"
-------------------------------------------------------------------------------

Tabbed by: Aaron Field
Email: Oasis4U2NV@tampabay.rr.com


Tuning is EADGBd, drop high E to D



Chords used:  

    D  Dsus2/B  G   G/F#  Bm  A
d|--0----0------0----0----0---0--|
B|--3----5------3----3----3---2--|
G|--2----4------0----0----4---2--|
D|--0----0------0----0----4---2--|
A|--0----0------2----x----2---0--|
E|--x----x------3----2----x---x--|



Listen to the CD for strumming patterns


Intro:


d|-------------------------------------------------------------------|
B|-------------------------------------------------------------------|
G|--7-----7-----7-----7-----9---9---4-----4-----4-----4-----2---2----|
D|----0-0---0-0---0-0---0-0---0---0---0-0---0-0---0-0---0-0---0---0--|  x4
A|-------------------------------------------------------------------|
E|-------------------------------------------------------------------|


D                        Dsus2/B
Hey, when the world's on fire
    G            G/F#
I believe in you
D                        Dsus2/B
Hey, when the world's on fire
    G            G/F#
I believe in you


Verse 1:  D - G - G/F#

D
Hey, when the world's on fire
    G
I believe in you
              D
We can't just disappear
                    G
Disappear without a trace
    D
And when the fire burns out
            G
And there's me and you
              D
We're getting closer now
                    G
Closer than you'd believe
                              D
But the truth is still out of reach


D - Dsus2/B - G - G/F#  (x2)


Verse 2:

D
Hey when the world's on fire
         G
And it's me and you
            D
Seems like a different faith
                          G
A world that seems out of place
D
When these arms reach out
       G
I'll embrace you
                 D
Don't feel like a prisoner
                   G
A prison without a cage
                            Bm
You're the only thing I can take


Chorus 1:

Bm             A          G
It's a long way down from here


Verse 3:

D
When the world's on fire
     G
What can we do?
           D
I can't surrender now
                           G
But surrender falls out of grace
    D
And when you see this boat
         G
With the golden rule
            D
Don't let it disappear
                    G
Disappear without a trace
                         Bm
Like a man who's lost at sea


Chorus 2:

Bm             A          G
It's a long way down from here
  G                                  D
A million miles are closer than you think


Solo:  D - Dsus2/B - G - G/F#  (x2)


Outro:

D
Hey, when the world's on fire

I believe in you
Добавлено: 13.07.2013
Другие материалы по этой песне:
  • Аккорды и текст

Страница создана 13.07.2013
http://primanota.ru/golden-state/world-on-fire-chords.htm
Привет, Гость.
Предлагаем пройти революционный курс по гитаре.
Подарок от PrimaNota.Ru, забирай!