PrimaNota.ru - самый крупный в мире бесплатный архив песенных текстов, аккордов, табулатур и нот


Golden Smog - Fear of Falling - аккорды и текст, видео

Регистрация Запомнить меня
Войти через:  Facebook Google Twitter Vk Yandex Mail.ru

Golden Smog - Fear of Falling - аккорды и текст, видео

Печатать
Просмотров: 103
Fear of Falling
Golden Smog
[G]I am not a shadow I am flesh and blood
[G]meet me in the middle if you think you could
if you [Am]think you could
[G]if I'm walking in the dark I'm whispering
[G]if I'm walking in the dark I'm whispering
follow my [Am]whisper [C]
and I will see you [G]through
[C]if I make three wishes
[Bm]one is not to fall
[Bb]the other two will follow
[Am]beyond the wall
----0h2pull off----2--------0h2p/o---2-----5------ the pull off not dramatic like blues just fast
-----------------1--1---------------1---1---------
--------------------------------------------------
--------------------------------------------------
--------------------------------------------------
---------------------------------------------0-2-3 to G

[G]if the world spins faster on my knees I crawl
[G]if the world spins faster on my knees I crawl
on my knees I [Am]crawl [C]
straight on back to [G]you
[C]if I make three wishes
[Bm]one is not to fall
[Bb]the other two will follow
[Am]beyond the wall
----0h2pull off----2--------0h2p/o---2-----5------ the pull off not dramatic like blues just fast
-----------------1--1---------------1---1---------
--------------------------------------------------
--------------------------------------------------
--------------------------------------------------
---------------------------------------------0-2-3 to G
[G]I am not a shadow I am flesh and blood
[G]meet me in the middle if you think you could
if you think you [Am]could [C]
I will see you [G]through
if you think you [Am]could [C]
I will see you [G]through
Добавлено: 16.03.2012
Другие материалы по этой песне:
  • Аккорды и текст

Страница создана 16.03.2012
http://primanota.ru/golden-smog/fear-of-falling-chords.htm
Привет, Гость.
Предлагаем пройти революционный курс по гитаре.
Подарок от PrimaNota.Ru, забирай!