PrimaNota.ru - самый крупный в мире бесплатный архив песенных текстов, аккордов, табулатур и нот


Golden Shoulders - I Will Light You On Fire - аккорды и текст, таба, видео

Регистрация Запомнить меня
Войти через:  Facebook Google Twitter Vk Yandex Mail.ru

Golden Shoulders - I Will Light You On Fire - аккорды и текст, таба, видео

Печатать
Просмотров: 127
I Will Light You On Fire
Golden Shoulders
http://profile.myspace.com/index.cfm?fuseaction=user.viewprofile&friendID=9263472

I Will Light You on Fire-Golden Shoulders
Friendship Is Deep-2004 Doppler Records

Chords Used: A [002220]
	     E [022100]
	     B-Something [244222]
	     D [000232]

"D" means strum down, and "U" means strum up.


	     A		   E  	     B-something
e|--------0--0--0-----------0---------2-2-2--2-2---|
B|--------2--3--2--0-----0--0--0------2-2-2--2-2---|
G|--------2--2--2--0-----1--1--1---2--2-2-2--2-2---|
D|----2---2--2--2—-0--2--2--2--2---4--4-4-4--4-4---|
A|--0-----0--0--0-----2------------4--4-4-4--4-4---|
E|--------------------0------------2--2-2-2--2-2---|
	  D  U  D  U  D  D  D  D   D  D U D  D U

	D
e|--2--2--0--0--|
B|--3--3--3--3--|
G|--2--2--2--2--|
D|--0--0--0--0--|
A|--0--0--0--0--|
E|--------------|
    D  D  U  U

That's it, just repeat over and over again. 
Добавлено: 08.06.2012
Вам также может быть интересно:
Другие материалы по этой песне:
  • Аккорды и текст

Страница создана 30.04.2012
http://primanota.ru/golden-shoulders/i-will-light-you-on-fire-chords.htm
Привет, Гость.
Предлагаем пройти революционный курс по гитаре.
Подарок от PrimaNota.Ru, забирай!