PrimaNota.ru - самый крупный в мире бесплатный архив песенных текстов, аккордов, табулатур и нот


Golden Declan - Youre Gay - аккорды и текст, видео

Регистрация Запомнить меня
Войти через:  Facebook Google Twitter Vk Yandex Mail.ru

Golden Declan - Youre Gay - аккорды и текст, видео

Печатать
Просмотров: 57
Youre Gay
Golden Declan
Verse:

------------------------------------------------

------------------------------------------------

------------------------------------------------

--2-2-2/3-3-3-3--5-5-5--3-3-3-------------------

--2-2-2/3-3-3-3--5-5-5--3-3-3-------------------

--0-0-0/1-1-1-1--3-3-3--1-1-1-------------------

 

------------------------------------------------

------------------------------------------------

------------------------------------------------

--2-2-2/3-3-3-3--5-5-5--7-7-7-------------------

--2-2-2/3-3-3-3--5-5-5--7-7-7-------------------

--0-0-0/1-1-1-1--3-3-3--5-5-5-------------------

Repeat until chorus

 

Chorus:

-----------------------------------------------

-----------------------------------------------

--5-5-7-7--------------------------------------

--5-5-7-7-7-7-7-7-7-7-7-7----------------------

--3-3-5-5-7-7-7-7-7-7-7-7----------------------

----------5-5-5-5-5-5-5-5----------------------

 

-----------------------------------------------

-----------------------------------------------

--5-5-7-7--------------------------------------

--5-5-7-7-5-5-5-5-5-5-5-5----------------------

--3-3-5-5-5-5-5-5-5-5-5-5----------------------

----------3-3-3-3-3-3-3-3----------------------

Repeat 2x

 
Verse

     
Добавлено: 19.11.2013
Другие материалы по этой песне:
  • Аккорды и текст

Страница создана 31.10.2013
http://primanota.ru/golden-declan/youre-gay-chords.htm
Привет, Гость.
Предлагаем пройти революционный курс по гитаре.
Подарок от PrimaNota.Ru, забирай!