PrimaNota.ru - самый крупный в мире бесплатный архив песенных текстов, аккордов, табулатур и нот


Goldblade - Psycho - таба, видео

Регистрация Запомнить меня
Войти через:  Facebook Google Twitter Vk Yandex Mail.ru

Goldblade - Psycho - таба, видео

Печатать
Просмотров: 140
Song: Psycho
Artist: Goldblade
Album: Rebel Songs

I'm still working on the solo, if anyone knows it at all then let me know.

Intro

Guitar 1

e|----------------|  |----------------|
B|----------------|  |----------------|
G|--------7-7-9-9-|x3|----7-7---------|
D|7-7-7-7-7-7-9-9-|  |7-7-7-7-7-7-7-7-|
A|7-7-7-7-5-5-7-7-|  |7-7-5-5-7-7-7-7-|
E|5-5-5-5---------|  |5-5-----5-5-5-5-|

Guitar 2

e|------------------------------------|
B|------------------------------------|
G|------------------------------------|
D|-------4---------4---------4--------|
A|-7-4-7---7-7-4-7---7-7-4-7---7-4-5-4|
E|5-----------------------------------|

Verse

e|-------------------------------|
B|-------------------------------|
G|------------------------7-7----|
D|7-7-7-7-4-4-5-5-7-7-7-7-7-7-5-5|
A|7-7-7-7-4-4-5-5-7-7-7-7-5-5-5-5|
E|5-5-5-5-2-2-3-3-5-5-5-5-----3-3|

 We live in medieval times...

e|-------------------------------|
B|-------------------------------|
G|------------------------7-7----|
D|7-7-7-7-4-4-5-5-7-7-7-7-7-7-7-7|
A|7-7-7-7-4-4-5-5-7-7-7-7-5-5-7-7|
E|5-5-5-5-2-2-3-3-5-5-5-5-----5-5|

something something unite us...

Bridge

e|----------------------------------------------------------|
B|----------------------------------------------------------|
G|----------------7-7-7-7-7-7-7-----------------7-7-7-7-11-9|
D|9-9-9-9-9-9-9-9-7-7-7-7-7-7-7-9-9-9-9-9-9-9-9-7-7-7-7-11-9|
A|9-9-9-9-9-9-9-9-5-5-5-5-5-5-5-9-9-9-9-9-9-9-9-5-5-5-5-9-7-|
E|7-7-7-7-7-7-7-7---------------7-7-7-7-7-7-7-7-------------|
  
Sometimes I feel so reckless... Sometimes I feel pretty wild..

Chorus

e|----------------|--|----------------|
B|----------------|  |----------------|
G|--------7-7-9-9-|x3|----7-7---------|
D|7-7-7-7-7-7-9-9-|  |7-7-7-7-7-7-7-7-|
A|7-7-7-7-5-5-7-7-|  |7-7-5-5-7-7-7-7-|
E|5-5-5-5---------|--|5-5-----5-5-5-5-|

My name was psycho..  Yeah..

The bit after the solo

e|---------------------|--|----------------|
B|---------------------|  |----------------|
G|---------------------|x3|----------------|
D|------------4--------|  |----------------|
A|--7-5-4-7-5---7-5-4--|  |--4-5-7---------|
E|5-------------------7|--|5-------5-5-5-5-|

Then the same on bass

G|---------------------|x3|----------------|
D|------------4--------|  |----------------|
A|--7-5-4-7-5---7-5-4--|  |--4-5-7---------|
E|5-------------------7|--|5-------5-5-5-5-|

Then again..

Guitar 1
e|---------------------|--|----------------|
B|---------------------|  |----------------|
G|---------------------|x3|----------------|
D|------------4--------|  |----------------|
A|--7-5-4-7-5---7-5-4--|  |--4-5-7---------|
E|5-------------------7|--|5-------5-5-5-5-|

Guitar 2
e|---------------------|--|----------------|
B|---------------------|  |----------------|
G|---------------------|x3|7---------------|
D|---------------------|  |--7-4-5---------|
A|7-7-7-7-7-7-7-4-5-6--|  |--------5-5-5-5-|
E|---------------------|--|----------------|

Order:
Intro
Verse
Bridge
Chorus
Verse
Bridge
Chorusx2
(solo)
Bit after solo
Bridge
Chorus x4

www.goldblade.com
Добавлено: 01.04.2012
Вам также может быть интересно:
Другие материалы по этой песне:
  • Аккорды и текст

Страница создана 01.04.2012
http://primanota.ru/goldblade/psycho-chords.htm
Привет, Гость.
Предлагаем пройти революционный курс по гитаре.
Подарок от PrimaNota.Ru, забирай!