PrimaNota.ru - самый крупный в мире бесплатный архив песенных текстов, аккордов, табулатур и нот


Gojira - Ocean Planet - текст песни, таба, видео

Регистрация Запомнить меня
Войти через:  Facebook Google Twitter Vk Yandex Mail.ru

Gojira - Ocean Planet - текст песни, таба, видео

Печатать
Просмотров: 144
From Mars To Sirius
Gojira
Ocean Planet
DGCFAD
I correct some part of the tab.

-------------------------------------------------------------------------------|
-------------------------------------------------------------------------------|
----------------------------------2----2----2----2-----2----2------------------|
----------------------------------0----0----0----0-----0----0------------------|
--3-3-3-3-2-2-1-1-0------3-2-0---------------------------------3-3-3-3-2-2-1---|
--3-3-3-3-2-2-1-1-0--3b--3-2-0--3----3----3----2----2-----2----3-3-3-3-2-2-1---|
 PM----------------  A.H -----                               PM----------------|
-------------------------------------------------------------------------------|

-------------------------------------------------------------------------------|
-------------------------------------------------------------------------------|
-------------------2---2-----2-----2-------------------------------------------|
-------------------0---0-----0-----0-------------------------------------------|
-1-0-----3-2-0----------------------------------3-3-3-3-2-2-1-1-0------3-2-1---|
-1-0--3b-3-2-0--3----3----3-----2-----2---------3-3-3-3-2-2-1-1-0--3b--3-2-1---|
----     -----                                  -----------------      --------|

-------------------------------------------------------------------------------|
-------------------------------------------------------------------------------|
-----2-----2-----2-----2----2----2----------------------------------2----2-----|
-----0-----0-----0-----0----0----0----------------------------------0----0-----|
------------------------------------3-3-3-3-2-2-1-1-0------3-2-1---------------|
--3-----3-----3-----2----2----2-----3-3-3-3-2-2-1-1-0--3b--3-2-1--3----3-------|
                                    -------------------------------------------| A.H

--------------------------------------------------------------------------------|
--------------------------------------------------------------------------------|
---2---2---2---2----------------------------------------------------------2-----|
---0---0---0---0---5--5-5---5-5---5--5-5----------------------------------0-----|
-------------------4--4-4---4-4---4--4-4--3-3-3-3-2-2-1-1-0------3-2-0----------|
-3---2---2---2-----0--0-0---0-0---0--0-0--3-3-3-3-2-2-1-1-0--3b--3-2-0--3---3---|
                                          ----------------- A.H  ---------------|

-------------------------------------------------------------------------------|
-------------------------------------------------------------------------------|
-2----2----2-----2-----2----------------------------------2----2----2----2-----|
-0----0----0-----0-----0----------------------------------0----0----0----0-----|
--------------------------3-3-3-3-2-2-1-1-0------3-2-0-------------------------|
----3----2----2-----2-----3-3-3-3-2-2-1-1-0--3b--3-2-0--3---3-----3----2---2---|
                          ----------------- A.H  ------------------------------|

-------------------------------------------------------------------------------|
-------------------------------------------------------------------------------|
-2-----2----------------------------------2---2---2---2---2b4r2----------------|
-0-----0----------------------------------0---0---0---0------------------------|
----------3-3-3-3-2-2-1-1-0------3-2-0---------------------------3-3-3-3-2-2---|
----2-----3-3-3-3-2-2-1-1-0--3b--3-2-0--3---3---3---2---2--------3-3-3-3-2-2---|
          -----------------  A.H -----                           --------------|

--------------------------------------------------------------------------|----|
--------------------------------------------------------------------------|----|
---------------------2----2----2----2-----2----2--------------------------|----|
---------------------0----0----0----0-----0----0---5--5-5--5-5--5-5-5-----|----|
-1-1-0------3-2-1----------------------------------4--4-4--4-4--4-4-4-----|----|
-1-1-0--3b--3-2-1--3---3----3-----2----2----2------0--0-0--0-0--0-0-0-----|----|
 -----  A.H -------------------------------------------------------------------|

-----------------------------------------------------------------------------|
-----------------------------------------------------------------------------|
-----------------------------------------------------------------------------|
--5--5-5--5-5--5--5-5--5--5-5--5-5--5--5-5-------5--5-5--5-5--5--5-5---------|
--4--4-4--4-4--4--4-4--4--4-4--4-4--4--4-4-------4--4-4--4-4--4--4-4---------|
--0--0-0--0-0--0--0-0--0--0-0--0-0--0--0-0--17/--0--0-0--0-0--0--0-0--0-0-0--|
                                                                    PM-----

-----------------------------------------------------------------------------|
-----------------------------------------------------------------------------|
-------------------6-6-6-6-6-------------------------------------------------|
-3-------3---3-3---5-5-5-5-5--5--5-5--5-5--5--5-5--5--5-5--5-5--5--5-5-------|
-1-------1---1-1---4-4-4-4-4--4--4-4--4-4--4--4-4--4--4-4--4-4--4--4-4-------|
-0-0-0-0-0-0-0-0-0------------0--0-0--0-0--0--0-0--0--0-0--0-0--0--0-0--0-0--|
   -----   -     -                                                      -----|

-------------------------------------------------------------------|-----------|
-------------------------------------------------------------------|-----------|
---------------------6-6-6-6-6-------------------------------------|-----------|
---3-------3---3-3---5-5-5-5-5--5--5-5--5-5------------------------|-----------|
---1-------1---1-1---4-4-4-4-4--4--4-4--4-4------------------------|-----------|
-0-0-0-0-0-0-0-0-0-0------------0--0-0--0-0--0-0-0-0-0-0-0-0-0-0---|-----------|
 -   -----   -     ------------------------------------------------------------|

-------------------------------------------------------------------------------|
-------------------------------------------------------------------------------|
-----------------------------------------------------------------------------|
----------------------6------------------x-x-x-x-x-x-x-x-x-x-x-x-x-x-x-x-x---|
----------------------4------------------4-4-4-4-4-4-4-4-4-4-4-4-4-4-4-4-4---|
--0-0-0-0-0-0-0-0-0-0-4-0-1-0-3b--0-2-3--------------------------------------|
                        ----- A.H ---------------------------------------------|

-------------------------------------------------------------------------------|
-------------------------------------------------------------------------------|
-------------------------------------------------------------------------------|
-x-x-x-x-x---6---5--x-x-x-x-x-x-x-x-x-x-x-x-x-x-x-x-x-x-x-x-x--6---------------|
-4-4-4-4-4---4---3--4-4-4-4-4-4-4-4-4-4-4-4-4-4-4-4-4-4-4-4-4--4---------------|
-------------4-0-3---------------------------------------------4-0-0-0---------|
               -                                                 --------------|

-----------------------------------------------------------------------------|
-----------------------------------------------------------------------------|
-----------------------------------------------------------------------------|
-----------x-x-x-x-x-x-x-x-x-x-x-x-x-x-x-x-x-x-x-x-x-x-----------------------|
-----------4-4-4-4-4-4-4-4-4-4-4-4-4-4-4-4-4-4-4-4-4-4--33-33-33-33-33-33-33-|
-3b-0-0-0--------------------------------------------------------------------|
 A.H-----

---------------------------------------------------------------|-------------|
---------------------------------------------------------------|-------------|
---------------------------------------------------------------|-------------|
-----------------------3---------------------------------------|-------------|
-33-33-33-33-33-33-33--3--33-33-33-33-33-33-33-33-33-33-33-33--|-------------|
-----------------------1---------------------------------------|-------------|


-----------------------------------------------------------------------------|
-----------------------------------------------------------------------------|
--2-2-2-2--2-2-2-2--2-2-2-2--2-2-1-1----2-2-2-2--2-2-2-2--2-2-2-2--2-2-1-1---|
--0-0-0-0--0-0-0-0--0-0-0-0--0-0-0-0----0-0-0-0--0-0-0-0--0-0-0-0--0-0-0-0---|
--x-x-x-x--x-x-x-x--x-x-x-x--0-0-0-0----x-x-x-x--x-x-x-x--x-x-x-x--0-0-0-0---|
--3-3-3-3--2-2-2-2--1-1-1-1--0-0-0-0----3-3-3-3--2-2-2-2--1-1-1-1--0-0-0-0---|


---|-------------------------------x/--------------------------------x/|-|
---|-------------------------------x/--------------------------------x/|-|
---|-------------------------------x/--------------------------------x/|-|
---|-------------------------------x/--------------------------------x/|-|
---|-333-222-111-0------333-222-000x/--333-222-111-0-----333-222-000-x/|-|
---|-333-222-111-0--3b--333-222-000----333-222-111-0--3b-333-222-000-----|
      --------------     --------  A.H-----------------------------------|
Добавлено: 15.04.2012
Другие материалы по этой песне:

Страница создана 10.03.2012
http://primanota.ru/gojira/ocean-planet-chords.htm
Привет, Гость.
Предлагаем пройти революционный курс по гитаре.
Подарок от PrimaNota.Ru, забирай!