PrimaNota.ru - самый крупный в мире бесплатный архив песенных текстов, аккордов, табулатур и нот


Gojira - Love - текст песни, таба, видео

Регистрация Запомнить меня
Войти через:  Facebook Google Twitter Vk Yandex Mail.ru

Gojira - Love - текст песни, таба, видео

Печатать
Просмотров: 166
Author/Artist: Gojira
Title: Love
Album: Terra Incognita
Transcribed by: Jaymz88


-||---------------------------------------------------||----------------------|
-||---------------------------------------------------||----------------------|
-||---------------------------------------------------||----------------------|
-||------0-----0-----------------------0--------------||----------------------|
-||---4-----4-----4-----4-----4-----4-------4-----4---||----------------------|
-||------------------8-----8-----8-------------8------||----------------------|


-||---------------------------------------------------||----------------------|
-||---------------------------------------------------||----------------------|
-||---------------------------------------------------||----------------------|
-||---------------------------------------------------||----------------------|
-||--2--4--3--2--3--4--3--2--3--4--3--2--3--4--3--2---||----------------------|
-||--2--4--3--2--3--4--3--2--3--4--3--2--3--4--3--2---||----------------------|
   PM-  -  -  -  -  -  -  -  -  -  -  -  -  -  -  -

-||-------------------------------------------------------------||------------|
-||-------------------------------------------------------------||------------|
-||-------------------------------------------------------------||------------|
-||--------0----------------0--------------0---------------0----||------------|
-||---4---------------4---------------4---------------4---------||------------|
-||-------------------------------------------------------------||------------|

-||---------------------------------------------------------------------------|
-||---------------------------------------------------------------------------|
-||---------------------------------------------------------------------------|
-||---------------------------------------------------------------------------|
-||---------------------------------------------------------------------------|
-||-2-2-2-2-2-2-2-2-3-3-3-3-2-2-2-2-2-2-2-2-2-2-2-2-4-4-4-4-2-2-2-2-2-2-2-2-2-|


------------------------------------------------|------||---------------------|
------------------------------------------------|------||---------------------|
------------------------------------------------|------||---------------------|
------------------------------------------------|--5---||---------------------|
------------------------------------------------|--5---||---------------------|
-2-2-2-5-5-5-5-2-2-2-2-2-2-2-2-2-2-2-2-3-3-3-3--|--3---||---------------------|

-||---------------------------------------------------------------------------|
-||---------------------------------------------------------------------------|
-||---------------------------------------------------------------------------|
-||---------------------------------------------------------------------------|
-||---------------------------------------------------------------------------|
-||-2-2-2-2-2-2-2-2-3-3-3-3-2-2-2-2-2-2-2-2-2-2-2-2-4-4-4-4-2-2-2-2-2-2-2-2-2-|
 PM - - - - - - - - - - - - - - - - - - - - - - - - - - - - - - - - - - - - -

------------------------------------------------|------||---------------------|
------------------------------------------------|------||---------------------|
------------------------------------------------|------||---------------------|
------------------------------------------------|--5---||---------------------|
------------------------------------------------|--5---||---------------------|
-2-2-2-5-5-5-5-2-2-2-2-2-2-2-2-2-2-2-2-3-3-3-3--|--3---||---------------------|
 - - - - - - - - - - - - - - - - - - - - - - -

-||-------------------------------------------------------------||------------|
-||-------------------------------------------------------------||------------|
-||-------------------------------------------------------------||------------|
-||--------0----------------0--------------0---------------0----||------------|
-||---4---------------4---------------4---------------4---------||------------|
-||-------------------------------------------------------------||------------|

-||---------------------------------------------------------------------------|
-||---------------------------------------------------------------------------|
-||---------------------------------------------------------------------------|
-||---------------------------------------------------------------------------|
-||---------------------------------------------------------------------------|
-||-2-2-2-2-2-2-2-2-3-3-3-3-2-2-2-2-2-2-2-2-2-2-2-2-4-4-4-4-2-2-2-2-2-2-2-2-2-|
 PM - - - - - - - - - - - - - - - - - - - - - - - - - - - - - - - - - - - - -

------------------------------------------------|------||---------------------|
------------------------------------------------|------||---------------------|
------------------------------------------------|------||---------------------|
------------------------------------------------|--5---||---------------------|
------------------------------------------------|--5---||---------------------|
-2-2-2-5-5-5-5-2-2-2-2-2-2-2-2-2-2-2-2-3-3-3-3--|--3---||---------------------|
 - - - - - - - - - - - - - - - - - - - - - - -


-||---------------|---------------0--------------------------||---------------|
-||---------x--x--|---------------0-----------------x---x----||---------------|
-||---------x--x--|---------------0-----------------x---x----||---------------|
-||---------x--x--|---------------------------------x---x----||---------------|
-||---------------|------------------------------------------||---------------|
-||-0-0-0---------|-0-0-0---0-0-0---0-0-0----0-0-0-----------||---------------|
    - - -   *       - - -   - - -   - - -    - - -
*I have no idea how to put this sound on a tab

Guitar I
-||---------------------------------------------------------------------------|
-||---------------------------------------------------------------------------|
-||---------------------------------------------------------------------------|
-||--------------------------0-----0-----0-----0-----0-----0-----0-----0------|
-||-----------------------4-----4-----4-----4-----4-----4-----4-----4-----4---|
-||-2--1--3-----2--1--2-------------------------------------------------------|


------------------------------------------------------------------------------|
------------------------------------------------------------------------------|
------------------------------------------------------------------------------|
--0---------------------------------------------------------------------------|
------------------------------------------------------------------------------|
------------------------------------------------------------------------------|

Guitar II
-||--------------------------------------------------------0---||-------------|
-||--------------------------------------------------------0---||-------------|
-||--------------------------------------------------------0---||-------------|
-||------------------------------------------------------------||-------------|
-||------------------------------------------------------------||-------------|
-||--0--0--0--0--0--0--0--0--0--0--0--0--0--0--0-0-0---0-------||-------------|
   PM-  -  -  -  -  -  -  -  -  -  -  -  -  -  - - -   -

Last Riff
-||--------------------------------------------------------||-----------------|
-||---------------------------------------------------x----||-----------------|
-||---------------------------------------------------x----||-----------------|
-||---------------------------------------------------x----||-----------------|
-||--------------------------------------------------------||-----------------|
-||--0--0--0--0--0--0--0--0--0--0--0--0--0--0--0-0-0----0--||-----------------|
     -  -  -  -  -  -  -  -  -  -  -  -  -  -  - - -    -

At The End
-------------------------------------------------------0----------------------|
-------------------------------------------------------0----------------------|
-------------------------------------------------------0----------------------|
------------------------------------------------------------------------------|
------------------------------------------------------------------------------|
-----0--0--0--0--0--0--0--0--0--0--0--0--0--0--0-0-0--------------------------|
     -  -  -  -  -  -  -  -  -  -  -  -  -  -  - - -
Добавлено: 29.06.2012
Другие материалы по этой песне:

Страница создана 23.02.2012
http://primanota.ru/gojira/love-chords.htm
Привет, Гость.
Предлагаем пройти революционный курс по гитаре.
Подарок от PrimaNota.Ru, забирай!