PrimaNota.ru - самый крупный в мире бесплатный архив песенных текстов, аккордов, табулатур и нот


Gojira - In The Forest - текст песни, таба, видео

Регистрация Запомнить меня
Войти через:  Facebook Google Twitter Vk Yandex Mail.ru

Gojira - In The Forest - текст песни, таба, видео

Печатать
Просмотров: 161
Author/Artist: Gojira
Title: In The Forest
Album: Terra Incognita
Transcribed by: Jaymz88
DGCFAD


----------------------------------------------------------------------------|
--6------------------8----------------6------------------8------------------|
-----7-----------------------------------7----------------------------------|
---------6--------5-------------------------6---------5---------------------|
----------------------------------------------------------------------------|
----------------------------------------------------------------------------|

On the 2nd fret.
---------------|-------------------------------------------------------------|
---------------|-------------------------------------------------------------|
---------------|-------------------------------------------------------------|x4
---------------|-------------------------------------------------------------|
---------------|-------------------------------------------------------------|
-x-x-x--x-x-x--|--x-x-x--x-x-x--x-x-x--x-x-x--x-x-x--x-x-x--x-x-x--x-x-x-----|
 - - -  - - -     - - -  - - -  - - -  - - -  - - -  - - -  - - -  - - -

----------------------------------------------------------------------------|
----------------------------------------------------------------------------|
----------------------------------------------------------------------------|
----------------------------------------------------------------------------|
--------------------------------------------2-2-2--2-2-2--------------------|
--x-x-x--x-x-x--x-x-x--x-x-x--x-x-x--x-x-x--0-0-0--0-0-0--------------------|
  - - -  - - -  - - -  - - -  - - -  - - -  - - -  - - -

----------------------------------------------------------------------------|
----------------------------------------------------------------------------|
----------------------------------------------------------------x4----------|
----------------------------------------------------------------------------|
--2-2-2--2-2-2--2-2-2--2-2-2--2-2-2--2-2-2--2-2-2--2-2-2--------------------|
--0-0-0--0-0-0--0-0-0--0-0-0--0-0-0--0-0-0--0-0-0--0-0-0--------------------|
  - - -  - - -  - - -  - - -  - - -  - - -  - - -  - - -

-----------------------------------------------------------------------------|
-----------------------------------------------------------------------------|
-----------------------------------------------------------------------------|
-----------------------------------------------------------------------------|
-----------------------------------------------------------------------------|
--2-2-2-2-2-2-2-2-2-2-2-2-2-2-2-2-2-2-2-1-1-1----1--0--1---1--0--1---1--0--1-|
  - - - - - - - - - - - - - - - - - - - - - -    -  -  -   -  -  -   -  -  -

-----------------------------------------------------------------------------|
-----------------------------------------------------------------------------|
-------------x4--------------------------------------------------------------|
-----------------------------------------------------------------------------|
-----------------------------------------------------------------------------|
-4--1--0----------2-2-2-2-2-2-2-2-2--1--0--1--0---1--0--1--4--1--0-----------|
 -  -  -          - - - - - - - - -  -  -  -  -   -  -  -  -  -  -


-----------------------------------------------------------------------------|
-----------------------------------------------------------------------------|
-----------------------------------------------------------------------------|
-----------------------------------------------------------------------------|
-----------------------------------------------------------------------------|
--2-2-2-2-2-2-2-2-2-2-2-2-2-2-2-2-2-2-2-1-1-1----1--0--1---1--0--1---1--0--1-|
  - - - - - - - - - - - - - - - - - - - - - -    -  -  -   -  -  -   -  -  -

-----------------------------------------------------------------------------|
-----------------------------------------------------------------------------|
-------------x2--------------------------------------------------------------|
-----------------------------------------------------------------------------|
-----------------------------------------------------------------------------|
-4--1--0----------2-2-2-2-2-2-2-2-2--1--0--1--0---1--0--1--4--1--0-----------|
 -  -  -          - - - - - - - - -  -  -  -  -   -  -  -  -  -  -


----------------------------------------------------------------------------|
--6------------------8----------------6------------------8------------------|
-----7-----------------------------------7----------------------------------|
---------6--------5-------------------------6---------5---------------------|
----------------------------------------------------------------------------|
----------------------------------------------------------------------------|


---------------|------------------------------------------------------------|
---------------|------------------------------------------------------------|
---------------|------------------------------------------------------------|
---------------|------------------------------------------------------------|
---------------|--------------------------------------------2-2-2--2-2-2----|
-x-x-x--x-x-x--|--x-x-x--x-x-x--x-x-x--x-x-x--x-x-x--x-x-x--0-0-0--0-0-0----|
 - - -  - - -     - - -  - - -  - - -  - - -  - - -  - - -  - - -  - - -


----------------------------------------------------------------------------|
----------------------------------------------------------------------------|
----------------------------------------------------------------x7----------|
----------------------------------------------------------------------------|
--2-2-2--2-2-2--2-2-2--2-2-2--2-2-2--2-2-2--2-2-2--2-2-2--------------------|
--0-0-0--0-0-0--0-0-0--0-0-0--0-0-0--0-0-0--0-0-0--0-0-0--------------------|
  - - -  - - -  - - -  - - -  - - -  - - -  - - -  - - -


-----------------------------------------------------------------------------|
-----------------------------------------------------------------------------|
-----------------------------------------------------------------------------|
-----------------------------------------------------------------------------|
-----------------------------------------------------------------------------|
--2-2-2-2-2-2-2-2-2-2-2-2-2-2-2-2-2-2-2-1-1-1----1--0--1---1--0--1---1--0--1-|
  - - - - - - - - - - - - - - - - - - - - - -    -  -  -   -  -  -   -  -  -

----------------------------------------------------------------------------|
----------------------------------------------------------------------------|
-------------x4-------------------------------------------------------------|
----------------------------------------------------------------------------|
----------------------------------------------------------------------------|
-4--1--0----------2-2-2-2-2-2-2-2-2--1--0--1--0---1--0--1--4--1--0----------|
 -  -  -          - - - - - - - - -  -  -  -  -   -  -  -  -  -  -


-----------------------------------------------------------------------------|
-----------------------------------------------------------------------------|
-----------------------------------------------------------------------------|
-----------------------------------------------------------------------------|
-----------------------------------------------------------------------------|
--2-2-2-2-2-2-2-2-2-2-2-2-2-2-2-2-2-2-2-1-1-1----1--0--1---1--0--1---1--0--1-|
  - - - - - - - - - - - - - - - - - - - - - -    -  -  -   -  -  -   -  -  -

----------------------------------------------------------------------------|
----------------------------------------------------------------------------|
-------------x2-------------------------------------------------------------|
----------------------------------------------------------------------------|
----------------------------------------------------------------------------|
-4--1--0----------2-2-2-2-2-2-2-2-2--1--0--1--0---1--0--1--4--1--0----------|
 -  -  -          - - - - - - - - -  -  -  -  -   -  -  -  -  -  -


-x--------------------------------------------------------------------------|
-x--------------------------------------------------------------------------|
-x--------------------------------------------------------------------------|
-x--------------------------------------------------------------------------|
-x--------------------------------------------------------------------------|
-x--2-2-2-2-2-2-2--1--0--1---1--0--1--4--1--0-------------------------------|
    - - - - - - -  -  -  -   -  -  -  -  -  -

-----------------------------------------------------------------------------|
--8--8--9---8--8--9---8--8--9---8--8--9--------------------------------------|
--6--6--6---6--6--6---6--6--6---6--6--6--------------------------------------|
-----------------------------------------------------------------------------|
-----------------------------------------------------------------------------|
-------------------------------------------6-6-6-6-6-6-6-6-6-6-6-6-6-6-6-6-6-|
                                           - - - - - - - - - - - - - - - - -

At the end
----------------------------------------------------------------------------|
----------------------------------------------------------------------------|
----------------------------------------------------------------------------|
----------------------------------------------------------------------------|
----------------------------------------------------------------------------|
--6-6-6-6-6-6-6-6-6-6-6-6-6-6-6-6----6-6-6-6-6-6-6-6-6-6-6-6-6-6-6-6-6------|
  - - - - - - - - - - - - - - - -    - - - - - - - - - - - - - - - - -

Acoustic guitar
----------------------------------------------------------------------------|
--14--13--12--11-----------------------14--13--12--11-----------------------|
----------------------------------------------------------------------------|
------------------------------------11--------------------------------------|
-------------------14--13--12--11-----------------------14--13--12--11------|
----------------------------------------------------------------------------|
Добавлено: 07.06.2012
Другие материалы по этой песне:

Страница создана 24.02.2012
http://primanota.ru/gojira/in-the-forest-chords.htm
Привет, Гость.
Предлагаем пройти революционный курс по гитаре.
Подарок от PrimaNota.Ru, забирай!