PrimaNota.ru - самый крупный в мире бесплатный архив песенных текстов, аккордов, табулатур и нот


Gojira - From The Sky - текст песни, таба, бас-таба, видео

Регистрация Запомнить меня
Войти через:  Facebook Google Twitter Vk Yandex Mail.ru

Gojira - From The Sky - текст песни, таба, бас-таба, видео

Печатать
Просмотров: 194
Уроки эстрадного вокала в Санкт-Петербурге
Author/Artist: Gojira
Title: From The Sky
Album: From Mars To Sirius
Transcribed by: Jaymz88
DGCFAD
I correct everything on this tab


Tremolo picking
------------------------------------------------------------------------------|
------------------------------------------------------------------------------|
------------------------------------------------------------------------------|
-----------------------------------------------5--7--7--7--7--5--9--9--9--9---|
-----------------------------------------------5--7--7--7--7--5--9--9--9--9---|
--0----3----2----5----3----2----0----3---2-----3--5--5--5--5--3--7--7--7--7---|
                                               -  -  -  -  -  -  -  -  -  -

---------|--------------------------------------------------------------------|
---------|--------------------------------------------------------------------|
---------|--------------------------------------------------------------------|
-7-------|-----------------------------------------------5--7--7--7--7--5--9--|
-7-------|-----------------------------------------------5--7--7--7--7--5--9--|
-5--0----|--0----3----2----5----3----2----0----3---2-----3--5--5--5--5--3--7--|
 -  -                                                    -  -  -  -  -  -  -

------------------------------------------------------||----------------------|
------------------------------------------------------||----------------------|
------------------------------------------------------||----------------------|
-9--9--9--5-------------------------------------------||----------------------|
-9--9--9--7--------2--3-----2--3-----2--3-----2--3----||----------------------|
-7--7--7--5--0--0--------0--------0--------0----------||----------------------|
 -  -  -  -  -  -  -  -  -  -  -  -  -  -  -  -  -

------------------------------------------------------------------------------|
------------------------------------------------------------------------------|
--------5---------5---------5---------5---------5---------4--------4--------4-|
--------5---------5---------5---------5---------5---------4--------4--------4-|
------------------------------------------------------------------------------|
--0--3------0--3------0--3------0--3------0--3------0--2-----0--2-----0--2----|
  -  -      -  -      -  -      -  -      -  -      -  -     -  -     -  -

------------------------------------------------------------------------------|
------------------------------------------------------------------------------|
--------4---------4-----------------------------------------------------------|
--------4---------4-----------------------------------------------------------|
------------------------------------------------------------------------------|
--0--2------0--2--------------------------------------------------------------|
  -  -      -  -

--------x--------x---------x---------x----------x---------x---------x---------|
--------x--------x---------x---------x----------x---------x---------x---------|
--------x--------x---------x---------x----------x---------x---------x---------|
--------x--------x---------x---------x----------x---------x---------x---------|
--------x--------x---------x---------x----------x---------x---------x---------|
--0--3-----0--3------0--3------0--3------0--3-------0--2------0--2------0--2--|
  -  -  *  -  -  *   -  -  *   -  -  *   -  -   *   -  -  *   -  -  *   -  -

--x--------x---------x--------------------------------------------------------|
--x--------x---------x--------------------------------------------------------|
--x--------x---------x--------------------------------------------------------|
--x--------x---------x--------------------------------------------------------|
--x--------x---------x--------------------------------------------------------|
-----0--2------0--2-----------------------------------------------------------|
  *  -  -  *   -  -  *

------------------------------------------------------------------------------|
------------------------------------------------------------------------------|
------------------------------------------------------------------------------|
-----------------------------------------------5--7--7--7--7--5--9--9--9--9---|
-----------------------------------------------5--7--7--7--7--5--9--9--9--9---|
--0----3----2----5----3----2----0----3---2-----3--5--5--5--5--3--7--7--7--7---|
                                               -  -  -  -  -  -  -  -  -  -

---------|--------------------------------------------------------------------|
---------|--------------------------------------------------------------------|
---------|--------------------------------------------------------------------|
-7-------|--------------------------------------------------------------------|
-7-------|--------------------------------------------------------------------|
-5--0----|--------------------------------------------------------------------|
 -  -


------------------------------------------------------------------------------|
------------------------------------------------------------------------------|
--------5---------5---------5---------5---------5---------4--------4--------4-|
--------5---------5---------5---------5---------5---------4--------4--------4-|
------------------------------------------------------------------------------|
--0--3------0--3------0--3------0--3------0--3------0--2-----0--2-----0--2----|
  -  -      -  -      -  -      -  -      -  -      -  -     -  -     -  -

------------------------------------------------------------------------------|
------------------------------------------------------------------------------|
--------4---------4-----------------------------------------------------------|
--------4---------4-----------------------------------------------------------|
------------------------------------------------------------------------------|
--0--2------0--2--------------------------------------------------------------|
  -  -      -  -

------------------------------------------------------------------------------|
------------------------------------------------------------------------------|
------------------------------------------------------------------------------|
-----------------------------------------------5--7--7--7--7--5--9--9--9--9---|
-----------------------------------------------5--7--7--7--7--5--9--9--9--9---|
--0----3----2----5----3----2----0----3---2-----3--5--5--5--5--3--7--7--7--7---|
                                               -  -  -  -  -  -  -  -  -  -

---------|--------------------------------------------------------------------|
---------|--------------------------------------------------------------------|
---------|--------------------------------------------------------------------|
-7-------|--------------------------------------------------------------------|
-7-------|--------------------------------------------------------------------|
-5--0----|--------------------------------------------------------------------|
 -  -


------------------------------------------|-----------------------------------|
---------------------------------------x3-|-----------------------------------|
------------------------------------------|-----------------------------------|
------------------------------------------|-----------------------------------|
--2--------2--2-------8-8-7-7-6-6-5-5-----|---2--------2--2-------8-8-7-7-6-6-|
--1--0--0--1--1----0----------------------|---1--0--0--1--1----0--------------|
     -  -          -  - - - - - - - -            -  -          -  - - - - - -

------------------------------------------------------------------------------|
------------------------------------------------------------------------------|
------------------------------------------------------------------------------|
------------------------------------------------------------------------------|
-5-5-8-8-7-7-6-6-5-5-7-7-6-6-5-5-4-4------------------------------------------|
-------------------------------------4-3-2-1----------------------------------|
 - - - - - - - - - - - - - - - - - - - - - -  - - - -

-------------------------------------------|----------------------------------|
---------------------------------------x3--|----------------------------------|
-------------------------------------------|----------------------------------|
-------------------------------------------|----------------------------------|
--2--------2--2-------8-8-7-7-6-6-5-5------|--2--------2--2-------8-8-7-7-6-6-|
--1--0--0--1--1----0-----------------------|--1--0--0--1--1----0--------------|
     -  -          -  - - - - - - - -

-----------------------------|-------------------------------------------|----|
-----------------------------|----------------------------------------x3-|----|
-----------------------------|-------------------------------------------|----|
------9--9--9-9--9--9-9-9-9--|-------------------------------------------|----|
-5-5--8--8--8-8--8--8-8-8-8--|--2--------2--2-------8-8-7-7-6-6-5-5------|----|
------7--7--7-7--7--7-7-7-7--|--1--0--0--1--1----0-----------------------|----|
                                   -  -          -  - - - - - - - -

-----------------------------------------------------------------||-----------|
-----------------------------------------------------------------||-----------|
-----------------------------------------------------------------||-----------|
--------------------------------------------------9--9--9--9-9---||-----------|
--2--------2--2-------8-8-7-7-6-6-5-5---8--8--8---8--8--8--8-8---||-----------|
--1--0--0--1--1----0--------------------7--7--7---7--7--7--7-7---||-----------|
     -  -          -  - - - - - - - -


------------------------------------------------------------------------------|
------------------------------------------------------------------------------|
--------5---------5---------5---------5---------5---------4--------4--------4-|
--------5---------5---------5---------5---------5---------4--------4--------4-|
------------------------------------------------------------------------------|
--0--3------0--3------0--3------0--3------0--3------0--2-----0--2-----0--2----|
  -  -      -  -      -  -      -  -      -  -      -  -     -  -     -  -


------------------------------------------------------------------------------|
------------------------------------------------------------------------------|
--------4---------4-----------------------------------------------------------|
--------4---------4-----------------------------------------------------------|
---------------------------3------2-------------------------------------------|
--0--2------0--2------0--2----------------0--------3---------1-------0--------|
  -  -      -  -      -  - Tremolo picking


------------------------------------------------------------------------------|
------------------------------------------------------------------------------|
------------------------------------------------------------------------------|
------------------------------------------------------------------------------|
---8---5-----8----5-----------------------------------------------------------|
---0---0-----0----0-----------------------------------------------------------|


------------------------------------------------------------------------------|
------------------------------------------------------------------------------|
------------------------------------------------------------------------------|
-------3-----3-----3-----3-----3-----3-----3-----3-----2-----2-----2-----2----|
-----2-----2-----2-----2-----2-----2-----2-----2-----2-----2-----2-----2------|
---3-----3-----3-----3-----1-----1-----1-----1-----0-----0-----0-----0--------|


------------------------------------------------------------------------------|
------------------------------------------------------------------------------|
-------------------------------------------------0-----------------------0----|
-----3-----3-----0-----0-----3-----3-----3-----3---3-------3-----3-----3---3--|
---2-----2-----2-----2-----2-----2-----2-----2-------2---2-----2-----2--------|
-0-----0-----0-----0-----3-----3-----3-----3-----------1-----1-----1----------|


------------------------------------------------------|-----------------------|
------------------------------------------------------|-----------------------|
------------------------------------------------------|-----------------------|
-------2-----2-----2-----2-----3-----3-----0-----0----|-----------------------|
-2---2-----2-----2-----2-----2-----2-----2-----2------|-----------------------|
---0-----0-----0-----0-----0-----0-----0-----0--------|-----------------------|


------------------------------------------------------------------------------|
------------------------------------------------------------------------------|
------------------------------------------------------------------------------|
------------------------------------------------------------------------------|
--2--2--2--2--2--2--2--2--2--2--2--2--2--2--2--2--2--2--2--2--2--2--2--2--2---|
--0--0--0--0--0--0--0--0--0--0--0--0--0--0--0--0--0--0--0--0--0--0--0--0--0---|
  -  -  -  -  -  -  -  -  -  -  -  -  -  -  -  -  -  -  -  -  -  -  -  -  -

-------------------------------------------------------|----------------------|
----------------------------------------------------x3-|----------------------|
-------------------------------------------------------|----------------------|
-------------------------------------------------------|----------------------|
-------2-------2--3-------3----5-------7--------5------|-------2-------2--3---|
---3-------3----------1------------0--------0----------|---3-------3----------|
Tremolo Picking

----------------------------------||------------------------------------------|
----------------------------------||------------------------------------------|
----------------------------------||------------------------------------------|
----------------------------------||------------------------------------------|
------3---5---------7---------8---||------------------------------------------|
--1------------0---------0--------||------------------------------------------|


------------------------------------------------------------------------------|
------------------------------------------------------------------------------|
------------------------------------------------------------------------------|
-----------------------------------------------5--7--7--7--7--5--9--9--9--9---|
-----------------------------------------------5--7--7--7--7--5--9--9--9--9---|
--0----3----2----5----3----2----0----3---2-----3--5--5--5--5--3--7--7--7--7---|
                                               -  -  -  -  -  -  -  -  -  -

---------|--------------------------------------------------------------------|
---------|--------------------------------------------------------------------|
---------|--------------------------------------------------------------------|
-7-------|--------------------------------------------------------------------|
-7-------|--------------------------------------------------------------------|
-5--0----|--------------------------------------------------------------------|
 -  -
Добавлено: 12.03.2012
Другие материалы по этой песне:

Страница создана 12.03.2012
http://primanota.ru/gojira/from-the-sky-chords.htm
Привет, Гость.
Предлагаем пройти революционный курс по гитаре.
Подарок от PrimaNota.Ru, забирай!