PrimaNota.ru - самый крупный в мире бесплатный архив песенных текстов, аккордов, табулатур и нот


Gojira - From Mars - текст песни, таба, видео

Регистрация Запомнить меня
Войти через:  Facebook Google Twitter Vk Yandex Mail.ru

Gojira - From Mars - текст песни, таба, видео

Печатать
Просмотров: 154
Author/Artist: Gojira
Title: From Mars
Album: From Mars To Sirius
Transcribed by: Jaymz88
I correct all the tab
DGCFAD

------------------------------------------------------------------------------|
------------------------------------------------------------------------------|
-------0--------0-------0-------0--------0--------0----------0-------0--------|
----4--------5-------7-------9-------10--------7----------9-------5-------4---|
------------------------------------------------------------------------------|
--2-------3-------5-------7-------8---------5--------5/7--------3-------2-----|


------------------------------------------------------------------------------|
------------------------------------------------------------------------------|
--0-------0--------0--------0--------0--------0--------0--------0---------0---|
-------4--------4--------4--------7--------7--------7--------7---------4------|
------------------------------------------------------------------------------|
-----2-------2--------2--------5--------5--------5--------5---------2---------|


------------------------------------------------------------------------------|
------------------------------------------------------------------------------|
--------0--------0--------0---------0--------0----------0--------0--------0---|
-----5--------7--------9--------10--------7----------9--------5--------4------|
------------------------------------------------------------------------------|
--3--------5--------7--------8---------5--------5/7--------3--------2---------|


---------------------------------------------------------------------|--------|
------------------------------------------------------------------x2-|--------|
--------0--------0--------0--------0--------0--------0--------0------|--------|
-----4--------4--------4--------9--------9--------9--------9---------|----10--|
---------------------------------------------------------------------|--------|
--2--------2--------2--------7--------7--------7--------7------------|--8-----|


------------------------------------------------------------------||----------|
------------------------------------------------------------------||----------|
--0---------0---------0---------0---------0---------0---------0---||----------|
--------10--------10--------10--------10--------10--------10------||----------|
------------------------------------------------------------------||----------|
-----8---------8---------8---------8---------8---------8----------||----------|


------------------------------------------------------------------------------|
------------------------------------------------------------------------------|
-------0--------0-------0-------0--------0--------0----------0-------0--------|
----4--------5-------7-------9-------10--------7----------9-------5-------4---|
------------------------------------------------------------------------------|
--2-------3-------5-------7-------8---------5--------5/7--------3-------2-----|


------------------------------------------------------------------------------|
------------------------------------------------------------------------------|
--0-------0--------0--------0--------0--------0--------0--------0---------0---|
-------4--------4--------4--------7--------7--------7--------7---------4------|
------------------------------------------------------------------------------|
-----2-------2--------2--------5--------5--------5--------5---------2---------|


------------------------------------------------------------------------------|
------------------------------------------------------------------------------|
--------0--------0--------0---------0--------0----------0--------0--------0---|
-----5--------7--------9--------10--------7----------9--------5--------4------|
------------------------------------------------------------------------------|
--3--------5--------7--------8---------5--------5/7--------3--------2---------|


------------------------------------------------------------------------------|
------------------------------------------------------------------------------|
--------0--------0--------0---------0--------0--------0--------0--------0-----|
-----4--------4--------4---------9--------9--------9--------9--------10-------|
------------------------------------------------------------------------------|
--2--------2--------2---------7--------7--------7--------7--------8--------8--|


--------------------8--7--5--3----|-------------------------------------------|
----------------------------------|-------------------------------------------|
------0---------0-----------------|-------------------------------------------|
--10--------10--------------------|-------------------------------------------|
----------------------------------|-------------------------------------------|
---------8----------8--7--5--3----|-------------------------------------------|


------------------------------------------------------------------------------|
------------------------------------------------------------------------------|
-------0--------0-------0-------0--------0--------0----------0-------0--------|
----4--------5-------7-------9-------10--------7----------9-------5-------4---|
------------------------------------------------------------------------------|
--2-------3-------5-------7-------8---------5--------5/7--------3-------2-----|


------------------------------------------------------------------------------|
------------------------------------------------------------------------------|
--0-------0--------0--------0--------0--------0--------0--------0---------0---|
-------4--------4--------4--------7--------7--------7--------7---------4------|
------------------------------------------------------------------------------|
-----2-------2--------2--------5--------5--------5--------5---------2---------|


------------------------------------------------------------------------------|
------------------------------------------------------------------------------|
--------0--------0--------0---------0--------0----------0--------0--------0---|
-----5--------7--------9--------10--------7----------9--------5--------4------|
------------------------------------------------------------------------------|
--3--------5--------7--------8---------5--------5/7--------3--------2---------|

------------------------------------------------------------------------------|
------------------------------------------------------------------------------|
--------0--------0--------0---------0--------0--------0---------0--------0----|
-----4--------4--------4---------4--------4--------4--------4---------5-------|
------------------------------------------------------------------------------|
--2--------2--------2---------2--------2--------2--------2---------3----------|


------------------------------------------------------------------------------|
------------------------------------------------------------------------------|
--------0--------0--------0--------0--------0--------0--------0---------0-----|
-----5--------5--------5--------5--------5--------5--------5---------5--------|
------------------------------------------------------------------------------|
--3--------3--------3--------3--------3--------3--------3---------3-----------|
Добавлено: 10.05.2012
Другие материалы по этой песне:

Страница создана 18.03.2012
http://primanota.ru/gojira/from-mars-chords.htm
Привет, Гость.
Предлагаем пройти революционный курс по гитаре.
Подарок от PrimaNota.Ru, забирай!