PrimaNota.ru - самый крупный в мире бесплатный архив песенных текстов, аккордов, табулатур и нот


Gojira - Explosia Lenfant Sauvage - таба, видео

Регистрация Запомнить меня
Войти через:  Facebook Google Twitter Vk Yandex Mail.ru

Gojira - Explosia Lenfant Sauvage - таба, видео

Печатать
Просмотров: 131
Уроки эстрадного вокала в Санкт-Петербурге
Guitar 1

D|------------------------------------------------------------------|
A|------------------------------------------------------------------|
F|------------------------------------------------------------------|
C|-----------------------------4-----5--------4/5\4-----------------|3x
G|-----------------------------2-----3--------2/3\2-----------------|
C|--3--1--0----0------------------0-----0---------------------------|
    pm pm pm   pm                 pm    pm

Guitar 2
                          (Pick scrape downwards!)
D|----------------------------------0-------------------------------|
A|----------------------------------0-------------------------------|
F|----------------------------------0-------------------------------|
C|----------------------------------0-------------------------------|3x
G|----------------------------------0-------------------------------|
C|--3--1--0----0--------------------0-------------------------------|
    pm pm pm   pm          

Guitar 1

D|------------------------------------------------------------------|
A|------------------------------------------------------------------|
F|------------------------------------------------------------------|
C|------------------------------------------------------------------|1x
G|---5--5----5--5----5--5-------------------------------------------|
C|---3--3----3--3----3--3-------------------------------------------|

Guitar 2

D|------------------------------------------------------------------|
A|------------------------------------------------------------------|
F|------------------------------------------------------------------|
C|------------------------------------------------------------------|1x
G|---5--5----5--5----5--5-------------------------------------------|
C|---3--3----3--3----3--3-------------------------------------------|


                        [Repeat intro Section again, then:]


Guitar 2

D|--10---[Let ring, release from mute]------------------------------|
A|------------------------------------------------------------------|
F|------------------------------------------------------------------|
C|------------------------------------------------------------------|1x
G|------------------------------------------------------------------|
C|------------------------------------------------------------------|
    pm

Guitar 1

D|------------------------------------------------------------------|
A|------------------------------------------------------------------|
F|------------------------------------------------------------------|
C|------------------------------------------------------------------|1x
G|------------------------------------------------------------------|
C|--2-2-2-2-2-2-2-2--2--2-------2-2-2-2-2-2-2-2--2--2---------------|
                              All pm


D|------------------------------------------------------------------|
A|------------------------------------------------------------------|
F|------------------------------------------------------------------|
C|------------------------------------------------------------------|1x
G|------------------------------------------------------------------|
C|--2-2-2-2-2-2-2-2--2--2----2-2-2-2-2-2-2-2-2-2-2-2-2-2-2-2-2-2-2-2|
                              All pm


D|------------------------------------------------------------------|
A|------------------------------------------------------------------|
F|------------------------------------------------------------------|
C|------------------------------------------------------------------|1x
G|------------------------------------------------------------------|
C|--2-2-2-2-2-2-2-2--2--2----2-2-2-2-2-2-2-2--2--2------------------|
                              All pm


D|------------------------------------------------------------------|
A|------------------------------------------------------------------|
F|------------------------------------------------------------------|
C|------------------------------------------------------------------|1x
G|------------------------------------------------------------------|
C|--2-2-2-2-2-2-2-2--2--2----2-2-2-2-2-2-2-2-2-2-2-2-2-2-2-2-2-2-2-2|
                              All pm


D|------------------------------------------------------------------|
A|------------------------------------------------------------------|
F|---------------------------7///----7///---------------------------|
C|--------------------7//////----7///-------------------------------|8x
G|------------------------------------------------------------------|
C|--2-2-2-2-2-2-2---------------------------------------------------|
    [    pm     ]     [finger mute, gently rest finger on string] 



Guitar 1

D|------------------------------------------------------------------|
A|------------------------------------------------------------------|
F|------------------------------------------------------------------|
C|-----------------------------4-----5--------4/5\4-----------------|4x
G|-----------------------------2-----3--------2/3\2-----------------|
C|--3--1--0----0------------------0-----0---------------------------|
    pm pm pm   pm                 pm    pm

Guitar 2
                          (Pick scrape downwards!)
D|----------------------------------0-------------------------------|
A|----------------------------------0-------------------------------|
F|----------------------------------0-------------------------------|
C|----------------------------------0-------------------------------|4x
G|----------------------------------0-------------------------------|
C|--3--1--0----0--------------------0-------------------------------|
    pm pm pm   pm          

Guitar 1

D|------------------------------------------------------------------|
A|------------------------------------------------------------------|
F|------------------------------------------------------------------|
C|------------------------------------------------------------------|1x
G|---5--5----5--5----5--5-------------------------------------------|
C|---3--3----3--3----3--3-------------------------------------------|

Guitar 2

D|------------------------------------------------------------------|
A|------------------------------------------------------------------|
F|------------------------------------------------------------------|
C|------------------------------------------------------------------|1x
G|---5--5----5--5----5--5-------------------------------------------|
C|---3--3----3--3----3--3-------------------------------------------|


                           [Repeat again then:]


D|------------------------------------------------------------------|
A|------------------------------------------------------------------|
F|---------------------------7///----7///---------------------------|
C|--------------------7//////----7///-------------------------------|8x
G|------------------------------------------------------------------|
C|--2-2-2-2-2-2-2---------------------------------------------------|
    [    pm     ]     [finger mute, gently rest finger on string] 


D|------------------------------------------------------------------|
A|------------------------------------------------------------------|
F|------------------------------------------------------------------|
C|------------------------------------------------------------------|1x
G|------------------------------------------------------------------|
C|--2-2-2-2-2-2-2-2--2--2----2-2-2-2-2-2-2-2--2--2------------------|
                              All pm


D|------------------------------------------------------------------|
A|------------------------------------------------------------------|
F|------------------------------------------------------------------|
C|------------------------------------------------------------------|1x
G|------------------------------------------------------------------|
C|--2-2-2-2-2-2-2-2--2--2----2-2-2-2-2-2-2-2-2-2-2-2-2-2-2-2-2-2-2-2|
                              All pm


D|------------------------------------------------------------------|
A|------------------------------------------------------------------|
F|------------------------------------------------------------------|
C|------------------------------------------------------------------|1x
G|------------------------------------------------------------------|
C|--2-2-2-2-2-2-2-2--2--2----2-2-2-2-2-2-2-2--2--2------------------|
                              All pm


D|------------------------------------------------------------------|
A|------------------------------------------------------------------|
F|------------------------------------------------------------------|
C|------------------------------------------------------------------|1x
G|------------------------------------------------------------------|
C|--2-2-2-2-2-2-2-2--2--2----2-2-2-2-2-2-2-2-2-2-2-2-2-2-2-2-2-2-2-2|
                              All pm




Guitar 1
D|------------------------------------------------------------------|
A|------------------------------------------------------------------|
F|------------------------------------------------------------------|
C|------------------------------------------------------------------|1x
G|------------------------------------------------------------------|
C|--5----8--------5--8--5----3----7---------------------------------|


Guitar 2
D|------------------------------------------------------------------|
A|------------------------------------------------------------------|
F|------------------------------------------------------------------|
C|-5////////////////////////////////////////////////////////////////|1x
G|------------------------------------------------------------------|
C|------------------------------------------------------------------|


Guitar 1
D|------------------------------------------------------------------|
A|------------------------------------------------------------------|
F|------------------------------------------------------------------|
C|------------------------------------------------------------------|1x
G|------------------------------------------------------------------|
C|--5----8--------5--8--5----3----7---------------------------------|


Guitar 2
D|------------------------------------------------------------------|
A|------------------------------------------------------------------|
F|------------------------------------------------------------------|
C|-5////////////////////////////////////////////////////////////////|1x
G|------------------------------------------------------------------|
C|------------------------------------------------------------------|


Guitar 1
D|------------------------------------------------------------------|
A|------------------------------------------------------------------|
F|------------------------------------------------------------------|
C|------------------------------------------------------------------|1x
G|-3----6---------3--6--3----1----5---------------------------------|
C|------------------------------------------------------------------|


Guitar 2
D|------------------------------------------------------------------|
A|------------------------------------------------------------------|
F|------------------------------------------------------------------|
C|-5////////////////////////////////////////////////////////////////|1x
G|------------------------------------------------------------------|
C|------------------------------------------------------------------|



Guitar 1
D|------------------------------------------------------------------|
A|------------------------------------------------------------------|
F|------------------------------------------------------------------|
C|------------------------------------------------------------------|4x
G|------------------------------------------------------------------|
C|--5----8--------------5----3----7---------------------------------|


Guitar 2
D|------------------------------------------------------------------|
A|------------------------------------------------------------------|
F|------------------------------------------------------------------|
C|-5////////////////////////////////////////////////////////////////|4x
G|------------------------------------------------------------------|
C|------------------------------------------------------------------|



Guitar 1
D|------------------------------------------------------------------|
A|------------------------------------------------------------------|
F|------------------------------------------------------------------|
C|------------------------------------------------------------------|1x
G|------------------------------------------------------------------|
C|--5----8--------5/8----3----7-------------------------------------|


Guitar 2
D|------------------------------------------------------------------|
A|------------------------------------------------------------------|
F|------------------------------------------------------------------|
C|-5////////////////////////////////////////////////////////////////|1x
G|------------------------------------------------------------------|
C|------------------------------------------------------------------|


Guitar 1
D|------------------------------------------------------------------|
A|------------------------------------------------------------------|
F|------------------------------------------------------------------|
C|------------------------------------------------------------------|1x
G|------------------------------------------------------------------|
C|--5----8--------5/8----3----7-------------------------------------|


Guitar 2
D|------------------------------------------------------------------|
A|------------------------------------------------------------------|
F|------------------------------------------------------------------|
C|--5//////////////////////////////////////////////////////////////-|4x
G|------------------------------------------------------------------|
C|------------------------------------------------------------------|

               [Repeat the last 5 bars including the 4x bars, then:]


Guitar 1
D|------------------------------------------------------------------|
A|------------------------------------------------------------------|
F|------------------------------------------------------------------|
C|------------------------------------------------------------------|1x
G|--------------5---------------------------------------------------|
C|--5-----8---------------------------------------------------------|



Guitar 2
D|------------------------------------------------------------------|
A|------------------------------------------------------------------|
F|------------------------------------------------------------------|
C|------------------------------------------------------------------| outro
G|------------------------------------------------------------------|
C|--2--2--2--2--2--2--2--2----2-----2-------------------------------|
                       

Guitar 1
D|------------------------------------------------------------------|
A|------------------------------------------------------------------|
F|------------------------------------------------------------------|
C|------------------------------------------------------------------| outro
G|---------------5------------------------3------5------------------|
C|--5-----8---------------------------------------------------------|


Guitar 1
D|------------------------------------------------------------------|
A|------------------------------------------------------------------|
F|------------------------------------------------------------------|
C|------------------------------------------------------------------| outro
G|---------------5--------------------------------------------------|
C|--5-----8-------------------------------7~------------------------|




/ = Slide Up
\ = Slide Down
/// = Tremelo Pick
pm = Palm Mute
~ = Vibrato


This is the first track Explosia from Gojira's soon to be released L'enfant Sauvage. 
And my first tab by ear, it's probably not 100% accurate, but most of it sounds 
just as it does in the song, so hope you like it!
And I hope you pre-ordered this amazing album too.

ALL RIGHTS RESERVED TO THE MEMBERS OF GOJIRA AND ROADRUNNER RECORDS 2012
Добавлено: 06.11.2013
Другие материалы по этой песне:
  • Аккорды и текст

Страница создана 06.11.2013
http://primanota.ru/gojira/explosia-lenfant-sauvage-chords.htm
Привет, Гость.
Предлагаем пройти революционный курс по гитаре.
Подарок от PrimaNota.Ru, забирай!