PrimaNota.ru - самый крупный в мире бесплатный архив песенных текстов, аккордов, табулатур и нот


Gojira - Dawn - таба, бас-таба, видео

Регистрация Запомнить меня
Войти через:  Facebook Google Twitter Vk Yandex Mail.ru

Gojira - Dawn - таба, бас-таба, видео

Печатать
Просмотров: 166
Author/Artist: Gojira
Title: Dawn
Album: The Link
Transcribed by: metallica44
Email: metallica44@hotmail.fr


------------------------------------------------------------------------------|
------------------------------------------------------------------------------|
------------------------------------------------------------------------------|
------------------------------------------------------------------------------|
----2--3--2--3--5--2--3--2--5--------x4---------------------------------------|
------------------------------------------------------------------------------|
 PM --------------------------------------------------------------------------|

-----------------------------------------------------------------------------|
-----------------------------------------------------------------------------|
-----------------------------------------------------------------------------|
----4------------------2--4--2-----2-----------------------------------------|
----2--4--5------4--5--0--2--0--5--0--4-----x4-------------------------------|
-------2--3------2--3-----------3-----2--------------------------------------|


-----------------------------------------------------------------------------|
-----------------------------------------------------------------------------|
-----------------------------------------------------------------------------|
----4------------------2--4--2-----2-----------------------------------------|
----2--4--5------4--5--0--2--0--5--0--4-----x3-------------------------------|
-------2--3------2--3-----------3-----2--------------------------------------|


------------------------------------------------------------------------------|
------------------------------------------------------------------------------|
------------------------------------------------------------------------------|
------------------------------------------------------------------------------|
----2--3--2--5--2--3--2--5----------x6----------------------------------------|
------------------------------------------------------------------------------|
 PM---------------------------------------------------------------------------|

------------------------------------------------------------------------------|
------------------------------------------------------------------------------|
------------------------------------------------------------------------------|
--------------------------------------------------2---------------------------|
----0------0------3----------0-----------3--0--2--0--2------------------------|
-------0------0-------0----------0-------------------0------------------------|
 PM---------------------------------------------------------------------------|

-------------------------|-------------------------|--------------------------|
-------------------------|-------------------------|--------------------------|
-------------------------|-------------------------|--------------------------|
----5--2--4--2-----------|---4--5--7--5--4--2------|--4--5--7--5--4--2--2-----|
----3--0--2--0--2-----x3-|---2--3--5--3--2--0--2---|--2--3--5--3--2--0--2-----|
----------------0--------|---------------------0---|--------------------0-----|
 PM--------------          PM-------------------    PM------------------------|

------------------------------------------------------------------------------|
------------------------------------------------------------------------------|
------------------------------------------------------------------------------|
----5--2--4--2--3-----5--2--4--2--5----5--2--4--2--3----4--5--7--5--4--2--2---|
----3--0--2--0--x-----3--0--2--0--x----3--0--2--0--x----2--3--5--3--2--0--2---|
----------------1-----------------3----------------1----------------------0---|
 PM-----------      PM----------     PM----------     PM----------------------|
Добавлено: 04.04.2012
Другие материалы по этой песне:

Страница создана 08.03.2012
http://primanota.ru/gojira/dawn-chords.htm
Привет, Гость.
Предлагаем пройти революционный курс по гитаре.
Подарок от PrimaNota.Ru, забирай!