PrimaNota.ru - самый крупный в мире бесплатный архив песенных текстов, аккордов, табулатур и нот


Gojira - Clone - текст песни, таба, видео

Регистрация Запомнить меня
Войти через:  Facebook Google Twitter Vk Yandex Mail.ru

Gojira - Clone - текст песни, таба, видео

Печатать
Просмотров: 219
Уроки эстрадного вокала в Санкт-Петербурге
Author/Artist: Gojira
Title: Clone
Album: Terra Incognita
Transcribed by: Jaymz88
DGCFAD


---------------------------------------------------------------------------|
---------------------------------------------------------------------------|
---------------------------------------------------------------------------|
----------------------------------10p7-9p7-8p7-10p7-9p7-8p7-10p7-8p7-10p7--|
--8-7-6-8-7-6-8-6-8-7-6-8-7-6-8--------------------------------------------|
--8-7-6-8-7-6-8-6-8-7-6-8-7-6-8--------------------------------------------|
 PM - - - - - - - - - - - - - -    (Without the pick)

---------------------------------------------------------------------------|
---------------------------------------------------------------------------|
---------------------------------------------------------------------------|
-9p7-8p7-10p7-9p7-8p7-10p7-------------------------------------------------|
---------------------------------------------------------------------------|
---------------------------------------------------------------------------|


---------------------------------------------------------------------------|
---------------------------------------------------------------------------|
---------------------------------------------------------------------------|
----------------------------------9p6-8p6-7p6-9p6-8p6-7p6-9p6-7p6-9p6-8p6--|
--8-7-6-8-7-6-8-6-8-7-6-8-7-6-8--------------------------------------------|
--8-7-6-8-7-6-8-6-8-7-6-8-7-6-8--------------------------------------------|
  - - - - - - - - - - - - - - -

---------------------------------------------------------------------------|
---------------------------------------------------------------------------|
---------------------------------------------------------------------------|
-7p6-9p6-8p6-7p6-9p6------------------------------------9p6-8p6-7p6-9p6-8p6|
-------------------------8-7-6-8-7-6-8-6-8-7-6-8-7-6-8---------------------|
-------------------------8-7-6-8-7-6-8-6-8-7-6-8-7-6-8---------------------|
                         - - - - - - - - - - - - - - -

---------------------------------------------------------------------------|
---------------------------------------------------------------------------|
---------------------------------------------------------------------------|
-7p6-9p6-7p6-10p7-9p7-8p7-10p7-9p7-8p7-10p7--------------------------------|
----------------------------------------------8-7-6-8-7-6-8-6-8-7-6-8-7-6-8|
----------------------------------------------8-7-6-8-7-6-8-6-8-7-6-8-7-6-8|
                                              - - - - - - - - - - - - - - -

---------------------|-----------------------------------------------------|
---------------------|-----------------------------------------------------|
---------------------|-----------------------------------------------------|
-6-------6--7--2-----|-----------------------------------------------------|
-6-------6--7--2-----|---1-1-1-1-1-1-1-1-1-1-1-1-1-1-1-1-------------------|
-4-------4--5--0-----|---1-1-1-1-1-1-1-1-1-1-1-1-1-1-1-1--3-2-1-3-2-1-3-0--|
                         - - - - - - - - - - - - - - - -  - - - - - - - -

--------------------------------------------------------|------------------|
--------------------------------------------------------|------------------|
----------------------------------------------------x2--|------------------|
--------------------------------------------------------|------------------|
-1-1-1-1-1-1-1-1-1-1-1-1-1-1-1-1------------------------|------------------|
-1-1-1-1-1-1-1-1-1-1-1-1-1-1-1-1--3-2-1-3-2-1-3-0-------|------------------|
 - - - - - - - - - - - - - - - -  - - - - - - - -

-------------------------------------|-------------------------------------|
-------------------------------------|-------------------------------------|
-------------------------------------|-------------------------------------|
-3----4----2----------3----4----2----|-----3----4----2---------------------|
-3----4----2----------3----4----2----|-----3----4----2---2-2-2-2-2--2--2-2-|
-1----2----0----------1----2----0----|-----1----2----0---0-0-0-0-0--0--0-0-|
                                                          - - - - -  -  - - -

-----------------------------|---------------------------------------------|
-----------------------------|----------------------------------------------
------------------------x3---|---------------------------------------------|
-----------------------------|---------------------------------------------|
-2-2--2--2-2-2-2-2--2--------|--1-1-1-1-1-1-1-1-1-1-1-1-1-1-1-1------------|
-0-0--0--0-0-0-0-0--0--------|--1-1-1-1-1-1-1-1-1-1-1-1-1-1-1-1--3-2-1-3-2-1
 - -  -  - - - - -  -           - - - - - - - - - - - - - - - -  - - - - - -

---------------------------------------------------|-----------------------|
---------------------------------------------------|-----------------------|
---------------------------------------------------|------------------------
---------------------------------------------------|-----------------------|
------1-1-1-1-1-1-1-1-1-1-1-1-1-1-1-1--3-2-1-2-3---|-----------------------|
-3-0--1-1-1-1-1-1-1-1-1-1-1-1-1-1-1-1--3-2-1-2-3---|-----------------------|
 - -  - - - - - - - - - - - - - - - -  - - - - -

---------------------------------------------------------------------------|
---------------------------------------------------------------------------|
---------------------------------------------------------------------------|
---------------------------------------------------------------------------|
--5-5-5-5-4--------------5-5-5-5-4----------------x4-----------------------|
-------------0-0-0--3b--------------0-0-0--3b------------------------------|
             - - -  A.H             - - - A.H

---------------------------------------------------------------------------|
---------------------------------------------------------------------------|
--7-7-7-7-6-------------------------------------7-7-7-7-6------------------|
--x-x-x-x-x--------------3-3-3-3-2--------------x-x-x-x-x-------------3-3-3|
--5-5-5-5-4--------------1-1-1-1-2--------------5-5-5-5-4-------------1-1-1|
-------------0-0-0--3b---1-1-1-1-0---0-0-0--3b-------------0-0-0--3b--1-1-1|
             - - -  A.H                    A.H             - - -  A.H

---------------------------------------------------------------------------|
---------------------------------------------------------------------------|
---------------------------------------------------------------------------|
-3-2--------3--------------------------------------------------------------|
-1-2--------3--------------------------------------------------------------|
-1-0--0--0--1--------------------------------------------------------------|
      -  -

Guitar I (clean)
------3--------3---------3----------3----------3----------3---------3------|
----2---2----2----2----2----2-----2----2-----2----2-----2---2----2---2-----|
--5-------5----------5---------5----------5----------5---------5--------5--|
---------------------------------------------------------------------------|
---------------------------------------------------------------------------|
---------------------------------------------------------------------------|

Guitar II
---------------------------------------------------------------------------|
---------------------------------------------------------------------------|
---------------------------------------------------------------------------|
-3----------------------------------------5-----------------------------3--|
-3----------------------------------------3-----------------------------3--|
-1----------------------------------------3-----------------------------1--|


---------------------------------------------------------------------------|
---------------------------------------------------------------------------|
---------------------------------------------------------------------------|
---------5---------5-----6-----5-------5---------5-----6-------------------|
---------3---------3-----4-----3-------5---------5-----6-------------------|
-0-0--0--3--0-0-0--3--0--4--0--3--0-0--3--0-0-0--3--0--4--0--0--3b---------|
 - -  -     - - -     -     -     - -     - - -     -     -  - A.H

---------------------------------------------------------------------------|
---------------------------------------------------------------------------|
---------------------------------------------------------------------------|
---------5---------5-----6-----5-------5---------5------------4------------|
---------3---------3-----4-----3-------3---------3------------4------------|
-0-0--0--3--0-0-0--3--0--4--0--3--0-0--3--0-0-0--3--0--3b--0--2------------|
 - -  -     - - -     -     -     - -     - - -     - A.H  -

--------------------------------------|------------------------------------|
--------------------------------------|-------------------------------------
--------------------------------------|------------------------------------|
--3----4----2----------3----4----2----|-----3----4----2--------------------|
--3----4----2----------3----4----2----|-----3----4----2---2-2-2-2-2--2--2-2|
--1----2----0----------1----2----0----|-----1----2----0---0-0-0-0-0--0--0-0|
                                                          - - - - -  -  - - -

-----------------------------|---------------------------------------------|
-----------------------------|---------------------------------------------|
-----------------------------|---------------------------------------------|
-----------------------------|---------------------------------------------|
-2-2--2--2-2-2-2-2--2--------|---------------------------------------------|
-0-0--0--0-0-0-0-0--0--------|---------------------------------------------|
 - -  -  - - - - -  -
Добавлено: 08.03.2012
Другие материалы по этой песне:

Страница создана 08.03.2012
http://primanota.ru/gojira/clone-chords.htm
Привет, Гость.
Предлагаем пройти революционный курс по гитаре.
Подарок от PrimaNota.Ru, забирай!