PrimaNota.ru - самый крупный в мире бесплатный архив песенных текстов, аккордов, табулатур и нот


Gojira - Backbone - текст песни, таба, видео

Регистрация Запомнить меня
Войти через:  Facebook Google Twitter Vk Yandex Mail.ru

Gojira - Backbone - текст песни, таба, видео

Печатать
Просмотров: 194
Author/Artist: Gojira
Title: Backbone
Album: From Mars To Sirius
Transcribed by: Jaymz88
Tunning: D standard

--||-----------------------------------------------------------||-------------|
--||-----------------------------------------------------------||-------------|
--||-----------------------------------------------------------||-------------|
--||-----------------------------------------------------------||-------------|
--||------------------------------9-9-9-101010--9-9-9-101010---||-------------|
--||--0-0-0--0-0-0--0-0-0--0-0-0--0-0-0--0-0-0--0-0-0--0-0-0---||-------------|
      - - -  - - -  - - -  - - -  - - -  - - -  - - -  - - -

--||-----------------------------------------------------------||-------------|
--||----------------------------------------------------x2-----||-------------|
--||-----------------/6--------------------------/6------------||-------------|
--||------------------x---------------------------x------------||-------------|
--||--2--2-2-2-2-2---/4--------------------------/4------------||-------------|
--||--0--0-0-0-0-0---------3-3-3--2-2-2--1-1-0-----------------||-------------|
      -  - - - - -         - - -  - - -  - - -

--||-----------------------------------------------------------||-------------|
--||-----------------------------------------------------------||-------------|
--||-----------------------------------------------------------||-------------|
--||-----------------------------------------------------------||-------------|
--||------------------------------9-9-9-101010--9-9-9-101010---||-------------|
--||--0-0-0--0-0-0--0-0-0--0-0-0--0-0-0--0-0-0--0-0-0--0-0-0---||-------------|
      - - -  - - -  - - -  - - -  - - -  - - -  - - -  - - -



--||-----------------------------------------------------------||-------------|
--||----------------------------------------------------x2-----||-------------|
--||-----------------/6--------------------------/6------------||-------------|
--||------------------x---------------------------x------------||-------------|
--||--2--2-2-2-2-2---/4--------------------------/4------------||-------------|
--||--0--0-0-0-0-0---------3-3-3--2-2-2--1-1-0-----------------||-------------|
      -  - - - - -         - - -  - - -  - - -



--||-----------------------------------------------------------||-------------|
--||-----------------------------------------------------------||-------------|
--||-----------------------------------------------------------||-------------|
--||-----------------------------------------------------------||-------------|
--||------------------------------9-9-9-101010--9-9-9-101010---||-------------|
--||--0-0-0--0-0-0--0-0-0--0-0-0--0-0-0--0-0-0--0-0-0--0-0-0---||-------------|
      - - -  - - -  - - -  - - -  - - -  - - -  - - -  - - -


--||--------------------------------------------------------------------------|
--||--------------------------------------------------------------------------|
--||----------------/6--------------------------/6------------------/6--------|
--||-----------------x---------------------------x-------------------x--------|
--||-2--2-2-2-2-2---/4--------------------------/4----2--2-2-2-2-2--/4--------|
--||-0--0-0-0-0-0---------3-3-3--2-2-2--1-1-0---------0--0-0-0-0-0-------3-3--|
     -  - - - - -         - - -  - - -  - - -         -  - - - - -       - -

------------------------------------------------------------------------------|
------------------------------------------------------------------------------|
---------------/6-------------------------------------------------------------|
----------------x----------------/9-------------------------/9----------------|
---------------/4---2--2-2-2-2---/9-------------------------/9---2--2-2-2-2---|
-3-2-2-2-1-1-0------0--0-0-0-0---/9----3-3-3--2-2-2--1-1-0--/9---0--0-0-0-0---|
 - - - - - - -      -  - - - -         - - -  - - -  - - -       -  - - - -

------------------------------||----------------------------------------------|
------------------------------||----------------------------------------------|
------------------------------||----------------------------------------------|
-/9--------------------/9-----||----------------------------------------------|
-/9--------------------/9-----||----------------------------------------------|
-/9-3-3-3-2-2-2-1-1-0--/9-----||----------------------------------------------|
    - - - - - -  - - -

--||---------------------------|----------------------------------------------|
--||---------------------------|----------------------------------------------|
--||---------------------------|----------------------------------------------|
--||---------------------------|--12------------------------------------------|
--||--1---1-1---1-1-1-1-1-1----|-------11-------------------------------------|
--||--0---0-0---0-0-0-0-0-0----|--------------4----5--4--3--4-----------------|
      -   - -   - - - - - -      Tremolo Picking

--||---------------------------------------------------------||---------------|
--||---------------------------------------------------------||---------------|
--||--11--12-11---9-11--12--9-11---8--11--12---14---16-------||---------------|
--||---x---x--x---x--x---x--x--x---x---x---x----x----x-------||---------------|
--||---9--10--9---7--9--10--7--9---6---9--10---12---14-------||---------------|
--||---------------------------------------------------------||---------------|
 Tremolo Picking

--||---------------------------------------------------------||---------------|
--||---------------------------------------------------------||---------------|
--||---------------------------------------------------------||---------------|
--||-------------------------x4------------------------------||---------------|
--||--1--1-1--1-1-1-1-1-1------------------------------------||---------------|
--||--0--0-0--0-0-0-0-0-0------------------------------------||---------------|
      -  - -  - - - - - -


--||-----------------------------------------------------------||-------------|
--||-----------------------------------------------------------||-------------|
--||-----------------------------------------------------------||-------------|
--||-----------------------------------------------------------||-------------|
--||------------------------------9-9-9-101010--9-9-9-101010---||-------------|
--||--0-0-0--0-0-0--0-0-0--0-0-0--0-0-0--0-0-0--0-0-0--0-0-0---||-------------|
      - - -  - - -  - - -  - - -  - - -  - - -  - - -  - - -

--||--------------------------------------------------------------------------|
--||--------------------------------------------------------------------------|
--||----------------/6--------------------------/6------------------/6--------|
--||-----------------x---------------------------x-------------------x--------|
--||-2--2-2-2-2-2---/4--------------------------/4----2--2-2-2-2-2--/4--------|
--||-0--0-0-0-0-0---------3-3-3--2-2-2--1-1-0---------0--0-0-0-0-0-------3-3--|
     -  - - - - -         - - -  - - -  - - -         -  - - - - -       - -

------------------------------------------------------------------------------|
------------------------------------------------------------------------------|
---------------/6-------------------------------------------------------------|
----------------x----------------/9-------------------------/9----------------|
---------------/4---2--2-2-2-2---/9-------------------------/9---2--2-2-2-2---|
-3-2-2-2-1-1-0------0--0-0-0-0---/9----3-3-3--2-2-2--1-1-0--/9---0--0-0-0-0---|
 - - - - - - -      -  - - - -         - - -  - - -  - - -       -  - - - -

------------------------------||----------------------------------------------|
------------------------------||----------------------------------------------|
------------------------------||----------------------------------------------|
-/9--------------------/9-----||----------------------------------------------|
-/9--------------------/9-----||----------------------------------------------|
-/9-3-3-3-2-2-2-1-1-0--/9-----||----------------------------------------------|
    - - - - - -  - - -

(Guitar I)
--||--------------------------------------------------------------------------|
--||--------------------------------------------------------------------------|
--||--------------------------------------------------------------------------|
--||--2--5--5----------2--4--4----------2--5--5---7--7---9--9--10---2---5--5--|
--||--2--x--x----------2--x--x----------2--x--x---x--x---x--x---x---2---x--x--|
--||--0--3--3--0-0-0-0-0--2--2--0-0-0-0-0--3--3---5--5---7--7---8---0---3--3--|
               - - - -          - - - -

---------------------------------------------------------------||-------------|
---------------------------------------------------------------||-------------|
----------------------------------------------------------x2---||-------------|
---------2--4--4----------2---4--4---5--5---2--2---------------||-------------|
---------2--x--x----------2---x--x---x--x---2--2---------------||-------------|
-0-0-0-0-0--2--2--0-0-0-0-0---2--2---3--3---0--0---------------||-------------|
 - - - -          - - - -

(Guitar II)
-||---------------------------------------------------------------------------|
-||---------------------------------------------------------------------------|
-||---------------------------------------------------------------------------|
-||---------------------------------------------------------------------------|
-||-7-10-10----------7--9--9----------7-10-10-12-12-14-14-15---7-10-10--------|
-||-0--0--0--0-0-0-0-0--0--0--0-0-0-0-0--0--0--0--0--0--0--0---0--0--0--0-0-0-|
             - - - -          - - - -                                   - - -

------------------------------------------------------||----------------------|
------------------------------------------------------||----------------------|
------------------------------------------------------||----------------------|
------------------------------------------------x2----||----------------------|
---7--9--9----------7--10-10--9--9--7--7--6-----------||----------------------|
-0-0--0--0--0-0-0-0-0---0--0--0--0--0--0--0-----------||----------------------|
 -          - - - -

Beat your feat on the ground now...

--||--------------------------------------------------------------------------|
--||--------------------------------------------------------------------------|
--||--------------------------------------------------------------------------|
--||--------------------------------------------------------------------------|
--||-7-10-10--7--7--9--9--7--7-10-10-12-14-15-12-14---7-10-10--7--7--9--9--7--|
--||-0--0--0--0--0--0--0--0--0--0--0--0--0--0--0--0---0--0--0--0--0--0--0--0--|
     -  -  -  -  -  -  -  -  -  -  -  -  -  -  -  -   -  -  -  -  -  -  -  -
(Tripler chaque note comme pour l'intro.
Je l ai pas mis autrement ca aurait ete incomprehensible)

------------------------------------||----------------------------------------|
------------------------------------||----------------------------------------|
-------------------------------x3---||----------------------------------------|
------------------------------------||----------------------------------------|
-7-10-10--9--9--7--7--6-------------||----------------------------------------|
-0--0--0--0--0--0--0--0-------------||----------------------------------------|
 -  -  -  -  -  -  -  -  -
Добавлено: 06.07.2012
Другие материалы по этой песне:

Страница создана 24.02.2012
http://primanota.ru/gojira/backbone-chords.htm
Привет, Гость.
Предлагаем пройти революционный курс по гитаре.
Подарок от PrimaNota.Ru, забирай!