PrimaNota.ru - самый крупный в мире бесплатный архив песенных текстов, аккордов, табулатур и нот


Gojira - All The Tears - текст песни, таба, видео

Регистрация Запомнить меня
Войти через:  Facebook Google Twitter Vk Yandex Mail.ru

Gojira - All The Tears - текст песни, таба, видео

Печатать
Просмотров: 156
Уроки эстрадного вокала в Санкт-Петербурге
Авторы музыки: Mario Duplantier, Joe Duplantier
Авторы текста: Joe Duplantier
Author/Artist: Gojira
Title: All The Tears
Album: The Way Off All Flesh
Transcribed by: Jaymz88
Tunning: Drop C


------------------------------------------------------------------------------|
------------------------------------------------------------------------------|
------------------------------------------------------------------------------|
------------------------------------------------------------------------------|
--1---1---1---1---2---0--------0---2---3---2---0------------------------------|
--3---3---3---3---2---0---3b---0---2---3---2---0------------------------------|
                  -   -  A.H   -   -

------------------------------------------------------------------------------|
------------------------------------------------------------------------------|
------------------------------------------------------------------------------|
--------------------1--2--1--2--1--2--4--4--4--4--5--5--5--4--2--4--2--1------|
--1--2--1--2--1--2--3--3--3--3--3--3--3--3--3--3--3--3--3--3--3--3--3--3------|
--0--0--0--0--0--0------------------------------------------------------------|
  -  -  -  -  -  -  -  -  -  -  -  -  -  -  -  -  -  -  -  -  -  -  -  -  -

------------------------------------------------------------------------------|
------------------------------------------------------------------------------|
------------------------------------------------------------------------------|
------------------------------------------------------------------------------|
--1---1---1---1---2---0--------0---2---3---2---0------------------------------|
--3---3---3---3---2---0---3b---0---2---3---2---0------------------------------|
                  -   -  A.H   -   -

------------------------------------------------------------------------------|
------------------------------------------------------------------------------|
------------------------------------------------------------------------------|
--------------------1--2--1--2--1--2--4--4--4--4--5--5--5--4--2--4--2--1------|
--1--2--1--2--1--2--3--3--3--3--3--3--3--3--3--3--3--3--3--3--3--3--3--3------|
--0--0--0--0--0--0------------------------------------------------------------|
  -  -  -  -  -  -  -  -  -  -  -  -  -  -  -  -  -  -  -  -  -  -  -  -  -

------------------------------------------------------------------------------|
------------------------------------------------------------------------------|
------------------------------------------------------------------------------|
------------------------------------------------------------------------------|
---------7-7-7--10-10-10--7-7-7--------7-7-7--10-10-10--7-7-7---------7-7-7---|
--7-7-7--------------------------7-7-7-------------------------7-7-7----------|


------------------------------------------------------------------------------|
------------------------------------------------------------------------------|
------------------------------------------------------------------------------|
--8-8-8----------------------8-8-8--------------------------------------------|
--------7-7-7---------7-7-7---------7-7-7---------7-7-7--8-8-8--7-7-7---------|
---------------7-7-7-----------------------7-7-7----------------------7-7-7---|


------------------------------------------------------------------------------|
------------------------------------------------------------------------------|
------------------------------------------------------------------------------|
------------------------------------------------------------------------------|
-7-7-7--8-8-8--7-7-7---------------5-5-5----------------------5-5-5-----------|
----------------------0-0-0--3-3-3--------3-3-3--0-0-0--3-3-3-------3-3-3-----|


------------------------------------------------------------------------------|
------------------------------------------------------------------------------|
------------------------------------------------------------------------------|
------------------------------------------------------------------------------|
--1---1---1---1---2---0--------0---2---3---2---0------------------------------|
--3---3---3---3---2---0---3b---0---2---3---2---0------------------------------|
                  -   -  A.H   -   -


------------------------------------------------------------------------------|
------------------------------------------------------------------------------|
------------------------------------------------------------------------------|
------------------------------------------------------------------------------|
---------7-7-7--10-10-10--7-7-7--------7-7-7--10-10-10--7-7-7---------7-7-7---|
--7-7-7--------------------------7-7-7-------------------------7-7-7----------|


------------------------------------------------------------------------------|
------------------------------------------------------------------------------|
------------------------------------------------------------------------------|
--8-8-8----------------------8-8-8--------------------------------------------|
--------7-7-7---------7-7-7---------7-7-7---------7-7-7--8-8-8--7-7-7---------|
---------------7-7-7-----------------------7-7-7----------------------7-7-7---|


------------------------------------------------------------------------------|
------------------------------------------------------------------------------|
------------------------------------------------------------------------------|
------------------------------------------------------------------------------|
-7-7-7--8-8-8--7-7-7---------------5-5-5----------------------5-5-5-----------|
----------------------0-0-0--3-3-3--------3-3-3--0-0-0--3-3-3-------3-3-3-----|


------------------------------------------------------------------------------|
------------------------------------------------------------------------------|
------------------------------------------------------------------------------|
--------------------1--2--1--2--1--2--4--4--4--4--5--5--5--4--2--4--2--1------|
--1--2--1--2--1--2--3--3--3--3--3--3--3--3--3--3--3--3--3--3--3--3--3--3------|
--0--0--0--0--0--0------------------------------------------------------------|
  -  -  -  -  -  -  -  -  -  -  -  -  -  -  -  -  -  -  -  -  -  -  -  -  -
Добавлено: 26.04.2012
Другие материалы по этой песне:

Страница создана 09.04.2012
http://primanota.ru/gojira/all-the-tears-chords.htm
Привет, Гость.
Предлагаем пройти революционный курс по гитаре.
Подарок от PrimaNota.Ru, забирай!