PrimaNota.ru - самый крупный в мире бесплатный архив песенных текстов, аккордов, табулатур и нот


Gojira - A Sight To Behold - текст песни, таба, видео

Регистрация Запомнить меня
Войти через:  Facebook Google Twitter Vk Yandex Mail.ru

Gojira - A Sight To Behold - текст песни, таба, видео

Печатать
Просмотров: 126
Авторы музыки: Mario Duplantier, Joe Duplantier
Авторы текста: Joe Duplantier
Author/Artist: Gojira
Title: Sight To Behold
Album: The Way Of All Flesh
Tab by: Jaymz88
Tunning: D Standard (DGCFAD)
There is already pretty good tab of this song but you can only found the
tab on guitar pro.
I made this tab for the one who doesn't have guitar pro (so I made it for almost nobody).
I correct some part.
Enjoy this beautiful song.

(Vocoder)
------------------------------------------------------------------------------|
------------------------------------------------------------------------------|
------------------------------------------------------------------------------|
------------------------------------------------------------------------------|
-----3-----2-----3-----5-----3p2------2------0--------------------------------|
--2-----2-----2-----2-----2--------0------0-----0--3--0--2--0--3--------------|


   T    T    T    T    T   T    T   T   T   T   T   T    T   T   T   T
------------------------------------------------------------------------------|
------------------------------------------------------------------------------|
------------------------------------------------------------------------------|
---12p4-12p4-12p4-10p4-9p4-9p4-10p4-7p4-9p2-9p2-9p2-10p2-7p2-7p2-5p2-4p2------|
------------------------------------------------------------------------------|
------------------------------------------------------------------------------|

  T    T    T    T   T    T   T    T   T   T   T   T   T   T   T   T   T

------------------------------------------------------------------------------|
------------------------------------------------------------------------------|
------------------------------------------------------------------------------|
--12p4-12p4-12p4-10p4-9p4-9p4-10p4-7p4-9p2-9p2-9p2-9p2-9p2-9p2-9p2-9p2-9p2----|
------------------------------------------------------------------------------|
------------------------------------------------------------------------------|


   T    T    T    T    T   T    T   T   T   T   T   T    T   T   T   T
------------------------------------------------------------------------------|
------------------------------------------------------------------------------|
------------------------------------------------------------------------------|
---12p4-12p4-12p4-10p4-9p4-9p4-10p4-7p4-9p2-9p2-9p2-10p2-7p2-7p2-5p2-4p2------|
------------------------------------------------------------------------------|
------------------------------------------------------------------------------|

  T    T    T    T    T    T    T    T    T  T    T    T     T    T

------------------------------------------------------------------------------|
------------------------------------------------------------------------------|
------------------------------------------------------------------------------|
--12p4-12p4-12p4-12p4-12p4-12p4-12p4-12p4-12/14p2-14p2-14p2--14p2-14p2--------|
------------------------------------------------------------------------------|
------------------------------------------------------------------------------|

(Vocoder)
------------------------------------------------------------------------------|
------------------------------------------------------------------------------|
------------------------------------------------------------------------------|
------------------------------------------------------------------------------|
-----3-----2-----3-----5-----3p2------2------0--------------------------------|
--2-----2-----2-----2-----2--------0------0-----0--3--0--2--0--3--------------|

   T    T    T    T    T   T    T   T   T   T   T   T    T   T   T   T
------------------------------------------------------------------------------|
------------------------------------------------------------------------------|
------------------------------------------------------------------------------|
---12p4-12p4-12p4-10p4-9p4-9p4-10p4-7p4-9p2-9p2-9p2-10p2-7p2-7p2-5p2-4p2------|
------------------------------------------------------------------------------|
------------------------------------------------------------------------------|

  T    T    T    T   T    T   T    T   T   T   T   T   T   T   T   T   T

------------------------------------------------------------------------------|
------------------------------------------------------------------------------|
------------------------------------------------------------------------------|
--12p4-12p4-12p4-10p4-9p4-9p4-10p4-7p4-9p2-9p2-9p2-9p2-9p2-9p2-9p2-9p2-9p2----|
------------------------------------------------------------------------------|
------------------------------------------------------------------------------|


   T    T    T    T    T   T    T   T   T   T   T   T    T   T   T   T
------------------------------------------------------------------------------|
------------------------------------------------------------------------------|
------------------------------------------------------------------------------|
---12p4-12p4-12p4-10p4-9p4-9p4-10p4-7p4-9p2-9p2-9p2-10p2-7p2-7p2-5p2-4p2------|
------------------------------------------------------------------------------|
------------------------------------------------------------------------------|

  T    T    T    T    T    T    T    T    T  T    T    T     T    T

------------------------------------------------------------------------------|
------------------------------------------------------------------------------|
------------------------------------------------------------------------------|
--12p4-12p4-12p4-12p4-12p4-12p4-12p4-12p4-12/14p2-14p2-14p2--14p2-14p2--------|
------------------------------------------------------------------------------|
------------------------------------------------------------------------------|

------------------------------------------------------------------------------|
------------------------------------------------------------------------------|
------------------------------------------------------------------------------|
------------------------------------------------------------------------------|
--------------------2-2--2---------------2-2--2---------------2-2--2----------|
--0-0-0-0-0-0-0-0-0-0-0--0---0-0-0-0-0-0-0-0--0---0-0-0-0-0-0-0-0--0--0-0-0---|
  - - - - - - - - -          - - - - - -          - - - - - -         - - -

------------------------------------------------------------------------------|
------------------------------------------------------------------------------|
------------------------------------------------------------------------------|
------------------------------------------------------------------------------|
--------------------------------------------0---------------------------------|
-0-0-0-0-0-0-0-0-0-0-0-0-0-0-0-0-0-0-0-0-0------------------------------------|
 - - - - - - - - - - - - - - - - - - - - -

Tremolo picking
------------------------------------------------------------------------------|
------------------------------------------------------------------------------|
------------------------------------------------------------------------------|
------------------------------------------------------------------------------|
--------------7----10---9--10--9--10--9---------------------------------------|
--7----10---------------------------------------------------------------------|


---------------------------------------------------0--------------------------|
---------------------------------------------------0--------------------------|
---------------------------------------------------0--------------------------|
------------------------------------------------------------------------------|
------------------------------------------------------------------------------|
--0-0-0-0-0-0-0-0-0-0-0-0-0-0-0-0-0-0-0-0-0-0-0-0-------0-0-0-0-0-0-0-0-0-0---|
  - - - - - - - - - - - - - - - - - - - - - - - -       - - - - - - - - - -

----------------------0-------------------------------------------------------|
----------------------0-------------------------------------------------------|
----------------------0-------------------------------------------------------|
------------------------------------------------------------------------------|
------------------------------------------------------------------------------|
-0-0-0-0-0-0-0-0-0-0----------------------------------------------------------|
 - - - - - - - - - -


Tremolo picking
------------------------------------------------------------------------------|
------------------------------------------------------------------------------|
------------------------------------------------------------------------------|
------------------------------------------------------------------------------|
--------------7----10---9--10--9--10--9---------------------------------------|
--7----10---------------------------------------------------------------------|


---------------------------------------------------0--------------------------|
---------------------------------------------------0--------------------------|
---------------------------------------------------0--------------------------|
------------------------------------------------------------------------------|
------------------------------------------------------------------------------|
--0-0-0-0-0-0-0-0-0-0-0-0-0-0-0-0-0-0-0-0-0-0-0-0-------0-0-0-0-0-0-0-0-0-0---|
  - - - - - - - - - - - - - - - - - - - - - - - -       - - - - - - - - - -

----------------------0-------------------------------------------------------|
----------------------0-------------------------------------------------------|
----------------------0-------------------------------------------------------|
------------------------------------------------------------------------------|
------------------------------------------------------------------------------|
-0-0-0-0-0-0-0-0-0-0----------------------------------------------------------|
 - - - - - - - - - -


------------------------------------------------------------------------------|
------------------------------------------------------------------------------|
------------------------------------------------------------------------------|
------------------------------------------------------------------------------|
--------------------2-2--2---------------2-2--2---------------2-2--2----------|
--0-0-0-0-0-0-0-0-0-0-0--0---0-0-0-0-0-0-0-0--0---0-0-0-0-0-0-0-0--0----------|
  - - - - - - - - -          - - - - - -          - - - - - -

   T    T    T    T    T   T    T   T   T   T   T   T    T   T   T   T
------------------------------------------------------------------------------|
------------------------------------------------------------------------------|
------------------------------------------------------------------------------|
---12p4-12p4-12p4-10p4-9p4-9p4-10p4-7p4-9p2-9p2-9p2-10p2-7p2-7p2-5p2-4p2------|
------------------------------------------------------------------------------|
------------------------------------------------------------------------------|

  T    T    T    T   T    T   T    T   T   T   T   T   T   T   T   T   T

------------------------------------------------------------------------------|
------------------------------------------------------------------------------|
------------------------------------------------------------------------------|
--12p4-12p4-12p4-10p4-9p4-9p4-10p4-7p4-9p2-9p2-9p2-9p2-9p2-9p2-9p2-9p2-9p2----|
------------------------------------------------------------------------------|
------------------------------------------------------------------------------|

   T    T    T    T    T   T    T   T   T   T   T   T    T   T   T   T
------------------------------------------------------------------------------|
------------------------------------------------------------------------------|
------------------------------------------------------------------------------|
---12p4-12p4-12p4-10p4-9p4-9p4-10p4-7p4-9p2-9p2-9p2-10p2-7p2-7p2-5p2-4p2------|
------------------------------------------------------------------------------|
------------------------------------------------------------------------------|

  T    T    T    T    T    T    T    T    T  T    T    T     T    T

------------------------------------------------------------------------------|
------------------------------------------------------------------------------|
------------------------------------------------------------------------------|
--12p4-12p4-12p4-12p4-12p4-12p4-12p4-12p4-12/14p2-14p2-14p2--14p2-14p2--------|
------------------------------------------------------------------------------|
------------------------------------------------------------------------------|


  T    T    T    T    T    T    T    T    T  T    T    T     T    T

------------------------------------------------------------------------------|
------------------------------------------------------------------------------|
------------------------------------------------------------------------------|
--12p4-12p4-12p4-12p4-12p4-12p4-12p4-12p4-12/14p2-14p2-14p2--14p2-14p2--------|
------------------------------------------------------------------------------|
------------------------------------------------------------------------------|

  T    T    T    T    T    T    T    T    T  T    T    T     T    T

------------------------------------------------------------------------------|
------------------------------------------------------------------------------|
------------------------------------------------------------------------------|
--12p4-12p4-12p4-12p4-12p4-12p4-12p4-12p4-12/14p2-14p2-14p2--14p2-14p2--------|
------------------------------------------------------------------------------|
------------------------------------------------------------------------------|

  T    T    T    T    T    T    T    T    T  T    T    T     T    T

------------------------------------------------------------------------------|
------------------------------------------------------------------------------|
------------------------------------------------------------------------------|
--12p4-12p4-12p4-12p4-12p4-12p4-12p4-12p4-12/14p2-14p2-14p2--14p2-14p2--------|
------------------------------------------------------------------------------|
------------------------------------------------------------------------------|

T: Tapping
Добавлено: 06.03.2012
Другие материалы по этой песне:

Страница создана 06.03.2012
http://primanota.ru/gojira/a-sight-to-behold-chords.htm
Привет, Гость.
Предлагаем пройти революционный курс по гитаре.
Подарок от PrimaNota.Ru, забирай!