PrimaNota.ru - самый крупный в мире бесплатный архив песенных текстов, аккордов, табулатур и нот


Gojira - 04 - таба, видео

Регистрация Запомнить меня
Войти через:  Facebook Google Twitter Vk Yandex Mail.ru

Gojira - 04 - таба, видео

Печатать
Просмотров: 100
Author/Artist: Gojira
Title: 04
Album: Terra Incognita
Transcribed by: Jaymz88
tunning: 1 step down (DGCFAD)
I'm sure this song is played with a guitar and not a bass.
And I'm almost sure that it's how they played it.
It looks hard but it's not that complicate.
Enjoy...

Part I
----------------------------------------------------------------------------|
----------------------------------------------------------------------------|
----------------------------------------------------------------------------|
--t12p5h8-------t12p5h7---7-------------t12p5h8-------t12p5h7---7-----------|
-------------------------------5-------------------------------------5------|
----------------------------------------------------------------------------|

----------------------------------------------------------------------------|
----------------------------------------------------------------------------|
----------------------------------------------------------------------------|
--t12p5h8-------t12p5h7---7-------------t12p5h8-------t12p5h7---------------|
-------------------------------5----------------------------------5---------|
----------------------------------------------------------------------------|


Part II
----------------------------------------------------------------------------|
----------------------------------------------------------------------------|
-------------------t12p5h8----------------------------t12p5h8---------------|
-----------t12p5h8----------t12p5h8----------t12p5h8----------t12p5h8-------|
---t12p5h8--------------------------t12p5h8---------------------------------|
----------------------------------------------------------------------------|



Part III
----------------------------------------------------------------------------|
----------------------------------------------------------------------------|
----------------------------------------------------------------------------|
--------t12p5h8--------t12p5h8-------t12p5h8-------t12p5h8--------t12p5h8---|
--t12p5----------t12p5---------t12p5---------t12p5----------12p5------------|
----------------------------------------------------------------------------|




Part II again
----------------------------------------------------------------------------|
----------------------------------------------------------------------------|
-------------------t12p5h8----------------------------t12p5h8---------------|
-----------t12p5h8----------t12p5h8----------t12p5h8----------t12p5h8-------|
---t12p5h8--------------------------t12p5h8---------------------------------|
----------------------------------------------------------------------------|


Part IV
----------------------------------------------------------------------------|
----------------------------------------------------------------------------|
----------------------------------------------------------------------------|
--------t12p5h8--------t12p5h8-------t12p5h8-------t12p5h8--------t12p5h8---|
--t12p5----------t12p5---------t12p5---------t12p5----------12p5------------|
----------------------------------------------------------------------------|

----------------------------------------------------------------------------|
----------------------------------------------------------------------------|
----------------------------------------------------------------------------|
--------t11p4h7--------t11p4h7-------t11p4h7-------t11p4h7-------t11p4h7----|
--t11p4----------t11p4---------t11p4---------t11p4---------t11p4------------|
----------------------------------------------------------------------------|


Part V
----------------------------------------------------------------------------|
----------------------------------------------------------------------------|
----------------------------------------------------------------------------|
-------------------t12p5h8-------------------------t12p5h8------------------|
-----------t12p5h8---------t12p5h8---------t12p5h8---------t12p5h8----------|
---t12p5h8-------------------------t12p5h8-------------------------t12p5h8--|



Part VI
----------------------------------------------------------------------------|
----------------------------------------------------------------------------|
----------------------------------------------------------------------------|
----------------------------------------------------------------------------|
--------t12p5h8-------t12p5h8-------t12p5h8-------t12p5h8--------t12p5h8----|
--t12p5---------t12p5---------t12p5---------t12p5---------t12p5-------------|


Part V Again
----------------------------------------------------------------------------|
----------------------------------------------------------------------------|
----------------------------------------------------------------------------|
-------------------t12p5h8-------------------------t12p5h8------------------|
-----------t12p5h8---------t12p5h8---------t12p5h8---------t12p5h8----------|
---t12p5h8-------------------------t12p5h8-------------------------t12p5h8--|
Добавлено: 15.04.2012
Другие материалы по этой песне:

Страница создана 10.04.2012
http://primanota.ru/gojira/04-chords.htm
Привет, Гость.
Предлагаем пройти революционный курс по гитаре.
Подарок от PrimaNota.Ru, забирай!