PrimaNota.ru - самый крупный в мире бесплатный архив песенных текстов, аккордов, табулатур и нот


Gogol Bordello - Wonderlust King - аккорды и текст, таба, видео

Регистрация Запомнить меня
Войти через:  Facebook Google Twitter Vk Yandex Mail.ru

Gogol Bordello - Wonderlust King - аккорды и текст, таба, видео

Печатать
Просмотров: 1870
Wonderlust King
Gogol Bordello
-------------------------------------------------------------------------------
			     Wonderlust King - Gogol Bordello
-------------------------------------------------------------------------------

tabbed by: jinjadaninja
email: thabookwyrm@gmail.com


the only other tab here leaves out a whole bunch of stuff. so ya.
Keep in mind mine doesn't add everything either, but it's a start.
Main pattern: Two eight notes (1+) and then upbeats for every chord.

Bm                G            D            F#
e|-2-2--2--2--2-3-3--3--3--3-2-2--2--2--2-2-2--2--2--2-2-2--2--2--2-|
B|-3-3--3--3--3-0-0--0--0--0-3-3--3--3--3-3-2--2--2--2-2-2--2--2--2-|
G|-4-4--4--4--4-0-0--0--0--0-2-2--2--2--2-4-4--4--4--4-4-4--4--4--4-|
D|-0-0--0--0--0-0-0--0--0--0-0-0--0--0--0-4-4--4--4--4-4-4--4--4--4-|
A|--------------2-2--2--2--2--------------2-3--3--3--3-3-3--3--3--3-|
E|--------------3-3--3--3--3--------------2-2--2--2--2-2-2--2--2--2-|

repeat until right before the chorus, then do this

Bm                G         D   Dsus D F F#
e|-2-2--2--2--2-3-3--3--3--3-2-2--2--2-1-2-|
B|-3-3--3--3--3-0-0--0--0--0-3-3--3--3-1-2-|
G|-4-4--4--4--4-0-0--0--0--0-2-2--3--2-3-4-|
D|-0-0--0--0--0-0-0--0--0--0-0-0--0--0-3-4-|
A|--------------2-2--2--2--2-----------2-3-|
E|--------------3-3--3--3--3-----------1-2-|

In the above part usually what I do to get it right is to slam my pinky down on 
the strings to mute them quickly.

from the part where he speaks in Ukrainian(?)

ALL UPBEATS

   F#          Bm
e|-2--2--2--2--2--2--2--2-|
B|-2--2--2--2--3--3--3--3-|
G|-4--4--4--4--4--4--4--4-|
D|-4--4--4--4--0--0--0--0-|
A|-3--3--3--3-------------|
E|-2--2--2--2-------------|

repeat UNTIL Eugene says:

"Simply because..."

then it's whole notes (one on each chord)

   G          D          F#
e|-3----------3----------2----------|
B|-0----------2----------2----------|
D|-0----------3----------4----------|
G|-0----------0----------3----------|
A|-2---------------------3----------|
E|-3---------------------2----------|


Next Part is the bridge, which is whole notes but no new chords

like so:

     D 
i've traveled the world looking for understanding 
       Bm                 G 
of the times that we live in 
G 
hunting and gathering first hand information 
                           D 
challenging definitions of sin 

I think it's just F# to the end from there for strum pattern listen to song.
Добавлено: 23.08.2013
Другие материалы по этой песне:

Страница создана 11.07.2012
http://primanota.ru/gogol-bordello/wonderlust-king-chords.htm
Привет, Гость.
Предлагаем пройти революционный курс по гитаре.
Подарок от PrimaNota.Ru, забирай!