PrimaNota.ru - самый крупный в мире бесплатный архив песенных текстов, аккордов, табулатур и нот


Gogol Bordello - Ultimate - текст песни, таба, видео

Регистрация Запомнить меня
Войти через:  Facebook Google Twitter Vk Yandex Mail.ru

Gogol Bordello - Ultimate - текст песни, таба, видео

Печатать
Просмотров: 335
Gogol Bordello
"Ultimate"
Album: Super Taranta (2007)


Main riff (:11)

---------------------------------------------------|
---------------------------------------------------|
---------------------------------------------------|
-----------------------------2---0-----------------|
----2-------2---2---------0--------3---2---2-------|
-0-----2--3---2---0---2-3------------3---2---0-----|


"There were never any good old days..." (:21)

 Em              Am      Em      Am       Em        Am B7     Em
-0-0--0--0-0--0--0-0--0--0-0--0--0-0--0---0-0--0----0---------0-----|
-0-0--0--0-0--0--1-1--1--0-0--0--1-1--1---0-0--0----1---------0-----|
-0-0--0--0-0--0--2-2--2--0-0--0--2-2--2---0-0--0----2--2-2-2--0-----|
-2-2--2--2-2--2--2-2--2--2-2--2--2-2--2---2-2--2----2--1-1-1--2-----|
-2-2--2--2-2--2--0-0--0--2-2--2--0-0--0---2-2--2--0-0--2-2-2--2-----|
-0-0--0--0-0--0----------0-0--0-----------0-0--0--------------0-----|


(:32)
---------------------------------------------------|
---------------------------------------------------|
---------------------------------------------------|
-----------------------------2---0-----------------|
----2-------2---2---------0--------3---2---2-------|
-0-----2--3---2---0---2-3------------3---2---0-----|


"When we stand here in a row..." (:42)
Eugene (acoustic):
 Em              Am      Em      Am       Em        Am B7     Em
-0-0--0--0-0--0--0-0--0--0-0--0--0-0--0---0-0--0----0---------0-----|
-0-0--0--0-0--0--1-1--1--0-0--0--1-1--1---0-0--0----1---------0-----|
-0-0--0--0-0--0--2-2--2--0-0--0--2-2--2---0-0--0----2--2-2-2--0-----|
-2-2--2--2-2--2--2-2--2--2-2--2--2-2--2---2-2--2----2--1-1-1--2-----|
-2-2--2--2-2--2--0-0--0--2-2--2--0-0--0---2-2--2--0-0--2-2-2--2-----|
-0-0--0--0-0--0----------0-0--0-----------0-0--0--------------0-----|

Oren (electric):
--------------------------------------------------------------------|
--------------------------------------------------------------------|
--------------------------------------------------------------------|
--------------------------------------------------------------------|
-----------------0---------------0-----------------0---2------------|
-0-----------------------0----------------0-------------------0-----|


(:53)
------------------------------------------------0--|
------------------------------------------------0--|
------------------------------------------------0--|
-----------------------------2---0--------------2--|
----2-------2---2---------0--------3---2---2----2--|
-0-----2--3---2---0---2-3------------3---2---0--0--|

---------------------------------------------------|
---------------------------------------------------|
---------------------------------------------------|
-----------------------------2---0-----------------|
----2-------2---2---------0--------3---2---2-------|
-0-----2--3---2---0---2-3------------3---2---0-----|


(1:14)
 Am
--5--x-x-5--x-x-5--x-x-5--x-x-5--x-x-5--x-x-5--x-x-5--|
--5--x-x-5--x-x-5--x-x-5--x-x-5--x-x-5--x-x-5--x-x-5--|
--5--x-x-5--x-x-5--x-x-5--x-x-5--x-x-5--x-x-5--x-x-5--|
--7--x-x-7--x-x-7--x-x-7--x-x-7--x-x-7--x-x-7--x-x-7--|
--7--x-x-7--x-x-7--x-x-7--x-x-7--x-x-7--x-x-7--x-x-7--|
--5--x-x-5--x-x-5--x-x-5--x-x-5--x-x-5--x-x-5--x-x-5--|

     Em
--x-x-7--x-x-7--x-x-7--x-x-7--x-x-7--x-x-7--x-x-7--x-x-7--|
--x-x-8--x-x-8--x-x-8--x-x-8--x-x-8--x-x-8--x-x-8--x-x-8--|
--x-x-9--x-x-9--x-x-9--x-x-9--x-x-9--x-x-9--x-x-9--x-x-9--|
--x-x-9--x-x-9--x-x-9--x-x-9--x-x-9--x-x-9--x-x-9--x-x-9--|
--x-x-7--x-x-7--x-x-7--x-x-7--x-x-7--x-x-7--x-x-7--x-x-7--|
----------------------------------------------------------|

     Am            Em            Am            Em            Am            Em
--x-x-5--x-x-7--x-x-7--x-x-7--x-x-5--x-x-5--x-x-7--x-x-7--x-x-5--x-x-5--x-x-7--x-x-7--|
--x-x-5--x-x-5--x-x-8--x-x-8--x-x-5--x-x-5--x-x-8--x-x-8--x-x-5--x-x-5--x-x-8--x-x-8--|
--x-x-5--x-x-5--x-x-9--x-x-9--x-x-5--x-x-5--x-x-9--x-x-9--x-x-5--x-x-5--x-x-9--x-x-9--|
--x-x-7--x-x-7--x-x-9--x-x-9--x-x-7--x-x-7--x-x-9--x-x-9--x-x-7--x-x-7--x-x-9--x-x-9--|
--x-x-7--x-x-7--x-x-7--x-x-7--x-x-7--x-x-7--x-x-7--x-x-7--x-x-7--x-x-7--x-x-7--x-x-7--|
--x-x-5--x-x-5----------------x-x-5--x-x-5----------------x-x-5--x-x-5----------------|


(1:31)
------0~----------------------|
------0~----------------------|
------0~----------------------|
-2----2~----2222-2----2222-2--|
-2----2~----2222-2----2222-2--|
-0----0~----0000-0----0000-0--|


(1:39) Here's the fast riff. Listen to the song to get the exact rhythm down.

-------------------------------------------------------------------------------|
-------------------------------------------------------------------------------|
------------------5-5-5-5-5-5-xxxx-9--9--9--9--x-7-x-5-x-4-2-22-0--------------|
-5-5-5-5-5-5-xxxx-7-7-7-7-7-7-xxxx-10-10-10-10-x-9-x-7-x-5-4-44-2--------------|
-7-7-7-7-7-7-xxxx--------------------------------------------------------------|
-------------------------------------------------------------------------------|

-------------------------------------------------------------------------------|
-------------------------------------------------------------------------------|
------------------5-5-5-5-5-5-xxxx-9--9--9--9--x-7-x-5-x-4-2-22-0--------------|
-5-5-5-5-5-5-xxxx-7-7-7-7-7-7-xxxx-10-10-10-10-x-9-x-7-x-5-4-44-2--------------|
-7-7-7-7-7-7-xxxx--------------------------------------------------------------|
-------------------------------------------------------------------------------|


(1:52)
-----------------------------------|
-----------------------------------|
-----------------------------------|
-2-----7---2---7---2---7--9--2-----|
-2-----7---2---7---2---7--9--2-----|
-0-----5---0---5---0---5--7--0-----|


(1:59)
-------------------------------------------------------------------------------|
-------------------------------------------------------------------------------|
------------------5-5-5-5-5-5-xxxx-9--9--9--9--x-7-x-5-x-4-2-22-0--------------|
-5-5-5-5-5-5-xxxx-7-7-7-7-7-7-xxxx-10-10-10-10-x-9-x-7-x-5-4-44-2--------------|
-7-7-7-7-7-7-xxxx--------------------------------------------------------------|
-------------------------------------------------------------------------------|


(2:05)
-----------------------------------|
-----------------------------------|
-----------------------------------|
-2-----7---2---7---2---7--9--2-----|
-2-----7---2---7---2---7--9--2-----|
-0-----5---0---5---0---5--7--0-----|


(2:12)
-------------------------------------------------------------------------------|
-------------------------------------------------------------------------------|
------------------5-5-5-5-5-5-xxxx-9--9--9--9--x-7-x-5-x-4-2-22-0--------------|
-5-5-5-5-5-5-xxxx-7-7-7-7-7-7-xxxx-10-10-10-10-x-9-x-7-x-5-4-44-2--------------|
-7-7-7-7-7-7-xxxx--------------------------------------------------------------|
-------------------------------------------------------------------------------|


(2:18) (repeat x2)
-----------------------------|
-----------------------------|
-----------9---7-------------|
-2----7----9---7--10-9-7-2---|
-2----7----7---5--10-9-7-2---|
-0----5-----------8--7-5-0---|


(2:31)
Eugene's solo. All tremelo picking. Listen to song for exact rhythm.

--------------------------0-0-0-00------------------------------------------|
--------------------------0-0-0-00------------------------------------------|
----------------12-11-9---0-0-0-00------------------------12-11-9---/16-----|
-2/-----12-10-------------2-2-2-22---2/-----12-10-12-10---------------------|
--------------------------2-2-2-22------------------------------------------|
--------------------------0-0-0-00------------------------------------------|


"Ultimate, ultimate..."
(2:41) This is also the rhythm part during Eugene's solo.

--------------------------------------------------------------|
--------------------------------------------------------------|
-------------------------------------12--12-12--11-9----------|
-2---2-2-2-2-2-2---7---7-7-7-7-7-7---12--12-12--11-9--9-7-2---|
-2---2-2-2-2-2-2---7---7-7-7-7-7-7---10--10-10--9--7--9-7-2---|
-0---0-0-0-0-0-0---5---5-5-5-5-5-5--------------------7-5-0---|
     PM.........       PM.........       PM...

----------------------------------------------------------------|
----------------------------------------------------------------|
-------------------------------------12--12-12--11-9------------|
-2---2-2-2-2-2-2---7---7-7-7-7-7-7---12--12-12--11-9------------|
-2---2-2-2-2-2-2---7---7-7-7-7-7-7---10--10-10--9--7----2---2---|
-0---0-0-0-0-0-0---5---5-5-5-5-5-5--------------------3---2-----|
     PM.........       PM.........       PM...


(2:57)
------------------------------------------------0--|
------------------------------------------------0--|
------------------------------------------------0--|
-----------------------------2---0--------------2--|
----2-------2---2---------0--------3---2---2----2--|
-0-----2--3---2---0---2-3------------3---2---0--0--|

---------------------------------------------------|
---------------------------------------------------|
---------------------------------------------------|
-----------------------------2---0-----------------|
----2-------2---2---------0--------3---2---2-------|
-0-----2--3---2---0---2-3------------3---2---0-----|
Добавлено: 04.09.2013
Другие материалы по этой песне:
  • Аккорды и текст

Страница создана 20.04.2012
http://primanota.ru/gogol-bordello/ultimate-chords.htm
Привет, Гость.
Предлагаем пройти революционный курс по гитаре.
Подарок от PrimaNota.Ru, забирай!