PrimaNota.ru - самый крупный в мире бесплатный архив песенных текстов, аккордов, табулатур и нот


Gogol Bordello - Not A Crime - текст песни, таба, видео

Регистрация Запомнить меня
Войти через:  Facebook Google Twitter Vk Yandex Mail.ru

Gogol Bordello - Not A Crime - текст песни, таба, видео

Печатать
Просмотров: 348
Уроки эстрадного вокала в Санкт-Петербурге
Artist: Gogol Bordello     http://www.gogolbordello.com/
Track: Not A Crime
Album: Gypsy Punks
Tabber: Woodshed


Riff A

e|-------------------------------|------------------------|
B|-------------------------------|------------------------|
G|-------------------------------|------------------------|
D|-------------------------------|------------------------|
A|------------0-2-0---0---------|-------0-2p0----0--------|
E|--12\--0--3-------3---3--0----|--0--3--------3----------|


e|---------------------------|---------------------------------|
B|---------------------------|---------------------------------|
G|---------------------------|---------------------------------|
D|---------------------------|---------------------------------|
A|---------0-2p0---0---------|--2p0---0--------2p0---0---------|
E|----0--3-------3---3p0-----|------3--------------3---3p0-----|

Riff Ax4  (minus slide from 12th fret on repeats)

Ex3 bars followed by F#5

Ex12 bars

Riff A X2
In the old times it was not a crime. Drop the charges. The people realise...

Ex8 bars
In the old times, in the old times...

Ex3 bars followed by F#5

Ex12 bars

Ex3 bars followed by F#5

Ex12 bars


BREAKDOWN SECTION

Riff B

e|--------------------------------------|-------------------------------|
B|--------------------------------------|-------------------------------|
G|--------------------------------------|-------------------------------|
D|------0h2-2---2---2-p0----------------|----------0h2-2---2---2/5------|
A|--------------------------------------|-------------------------------|
E|--------------------------------------|-------------------------------|

Reality...

e|-----0-----------------------------------------------------------|
B|----/5-3-2-3\2---------------------------------------------2-----|
G|----------------4---3h4p3---3--------------------3-4\3---3-------|
D|--------------------------5---5-4----------2-4/5-------5---------|
A|-----------------------------------------------------------------|
E|-----------------------------------------------------------------|


e|-----0-----------------------------------------------------------|
B|----/5--3-2h3\2--------------------------------------------------|
G|-----------------4---3h4p3----3----------------3-4p3-------------|
D|----------------------------5---5-4------2-4/5-------5\4--2------|
A|-----------------------------------------------------------------|
E|-----------------------------------------------------------------|


e|--------------------------------------------------------------------|
B|-----5-2h3p2-/5-------5-3-2------------5-3-2----------------2-------|
G|----------------------------3h4--------------3/4-3/4---3\4----------|
D|--------------------------------------------------------------------|
A|--------------------------------------------------------------------|
E|--------------------------------------------------------------------|
                  In the old time...


e|-----------------------------------------------------------------|
B|-----5-2h3p2-/5---5-3-2-----------------5--5--5------------------|
G|-------------------------3h4-------------------------------------|
D|------------------------------------------------------2-2-2------|
A|------------------------------------------------------2-2-2------|
E|------------------------------------------------------0-0-0------|

                                                        NOT A CRIME!

Ex3 bars followed by F#5

Ex12 bars

F# - E - F# - E
(Ukranian)    Not a crime

F# - E - F# - E
(Ukranian)    Not a crime
Добавлено: 24.11.2013
Другие материалы по этой песне:
  • Аккорды и текст

Страница создана 17.03.2012
http://primanota.ru/gogol-bordello/not-a-crime-chords.htm
Привет, Гость.
Предлагаем пройти революционный курс по гитаре.
Подарок от PrimaNota.Ru, забирай!