PrimaNota.ru - самый крупный в мире бесплатный архив песенных текстов, аккордов, табулатур и нот


Gogol Bordello - Name Your Ship - таба, видео

Регистрация Запомнить меня
Войти через:  Facebook Google Twitter Vk Yandex Mail.ru

Gogol Bordello - Name Your Ship - таба, видео

Печатать
Просмотров: 286
Arpeggio:

E|-------------3---5-3-----------|------------3---5-3---8----|
B|-----1-3-3/5---5-----5-1h3-1-0-|-----1-3-3/5---5-----5-----|
G|-0-----------------------------|-0-------------------------|
D|---2---------------------------|---2-----------------------|
A|-0-----------------------------|-0-------------------------|
E|-------------------------------|---------------------------|

E|-------------3---5-3-----------|------------3----------------|
B|-----1-3-3/5---5-----5-1h3-1-0-|-----1-3-3/5---5-1h3-1-0-1---|
G|-0-----------------------------|-0---------------------------|
D|---2---------------------------|---2-------------------------|
A|-0-----------------------------|-0---------------------------|
E|-------------------------------|-----------------------------|

Intro: You play this riff (or the same with A5,C5,G5 and G5-E5-G5):

E|-------|-------|-------|-------|
B|-------|-------|-------|-------|
G|-------|-------|-------|-------|
D|-------|-------|-------|-------|
A|-------|-3-----|-------|-------|
E|-5-----|-------|-5-----|-3-0-3-|

Am
You know 
     C          G
It's time for a change 
    C
But how 
                 G
And where do you start 

Dm
When bitching 
And moaning 
And frowning 
And groaning 
And loathing 
And throwning 
              Am
Has torn you apart 

(INTRO RIFF)

       Am
It has torn you apart 
From deep within 
C                G
Left no vigorous cell 
Dm                                Am     G
Even in Eden you seek knothole to hell 

     C
Ohhh Hey (Hey) 
G
Ho (Ho) 
   C            G
Captain Crooked Grin 
     C                      G
Tell me where you trying to go 

F5                        A5
You taught your parrot to stutter 
D5                     A5
Now you repeat his old chatter 
    F             C
But it is the way you name your ship 
           G              C
That's the way it's gonna row 
Ohhh 
F            C
It's the way you name your ship 
           G               Am
That's the way it's gonna row 

(INTRO RIFF)

Am
Now in the beginning there was a word
       C               G 
In the end there is no end 
Dm
People don't live or die 
People just fade in and out of the fog 
                 Am
We come to comprehend 

(INTRO RIFF)

Am
And now all alone with your crooked grin 
C                      G
How you plan staying afloat 
Dm
Even the boatsman grab Bible 
                   Am     G
and split from the boat 

     C
Ohhh Hey (Hey) 
G
Ho (Ho) 
   C             G
Captain Crooked Grin 
     C                      G
Tell us where you trying to go 

F5                         A5
You taught your parrot to stutter 
D5                       A5
Now you believe his old chatter 
    F              C
But it is the way you name your ship 
            G              C
That's the way it's gonna row 
F             G
It's the way you name your ship 
            C             Am
That's the way it's gonna row 

(INTRO RIFF)

Row! 

E|--------------------|--------------------|-----------|---|
B|--------------------|--------------------|-----------|---|
G|--------------------|--------------------|-----------|---|
D|--------------------|--------------------|-----------|---|
A|-0--3-5-5/7-5-3-5-3-|----3-5-5/7-5-3-5-3-|----/3-3-3-|-0-|
E|--------------------|-3------------------|-1---------|---|

E|--------------------|--------------------|-------|------|
B|--------------------|--------------------|-------|------|
G|--------------------|--------------------|-------|------|
D|--------------------|--------------------|-------|------|
A|-0--3-5-5/7-5-3-5-3-|----3-5-5/7-5-3-5-3-|----/3-|-0--3-|
E|--------------------|-3------------------|-1-----|------|

(exactly like before)
You taught your parrot to stutter 
Now you're slave to his chatter 
But it is the way you name your ship 
That's the way it's gonna row 
Ohhh 
It's the way you name your ship 
That's the way it's gonna row 
Ohhh 
It's the way you name your ship 
                              Am
That's exactly how it's gonna row 
Добавлено: 05.09.2013
Другие материалы по этой песне:
  • Аккорды и текст

Страница создана 05.09.2013
http://primanota.ru/gogol-bordello/name-your-ship-chords.htm
Привет, Гость.
Предлагаем пройти революционный курс по гитаре.
Подарок от PrimaNota.Ru, забирай!