PrimaNota.ru - самый крупный в мире бесплатный архив песенных текстов, аккордов, табулатур и нот


Gogogo Airheart - When The Flesh Hits - таба, видео

Регистрация Запомнить меня
Войти через:  Facebook Google Twitter Vk Yandex Mail.ru

Gogogo Airheart - When The Flesh Hits - таба, видео

Печатать
Просмотров: 64
Уроки эстрадного вокала в Санкт-Петербурге
ARTIST: Gogogo Airheart
SONG: "When the Flesh"
ALBUM: Exitheuxa (2002)



INTRO:
e|-------9-----9-----#-----9--x--9-----------6-----------------------------6~----------6~---------|
B|-------9-----9-----#-----9--x--9-----------6-----------------------------6~----------6~---------|
G|-------9-----9-----#-----9--x--9-----------6-----------------------------6~----------6~---------|
D|------------------------------------------------------------------------------------------------|
A|------------------------------------------------------------------------------------------------|
E|------------------------------------------------------------------------------------------------|
+
e|-------------9-----9-----#-----9-----#-----6-----------6-----6-----6-----6-----6-----6-----6----|
B|-------------9-----9-----#-----9-----#-----6-----------6-----6-----6-----6-----6-----6-----6----|
G|-------------9-----9-----#-----9-----#-----6-----------6-----6-----6-----6-----6-----6-----6----|
D|------------------------------------------------------------------------------------------------|
A|------------------------------------------------------------------------------------------------|
E|------------------------------------------------------------------------------------------------|


VERSE:
e|-------------------------------------------------------6-----6-----6-----x--x--6-----6-----6----|
B|-------------------------------------------------------6-----6-----6-----x--x--6-----6-----6----|
G|-------------8-----#-----8-----7-----#-----6-----------6-----6-----6-----x--x--6-----6-----6----|
D|------------------------------------------------------------------------------------------------|
A|------------------------------------------------------------------------------------------------|
E|------------------------------------------------------------------------------------------------|
+
e|-#-----------------------------------------------------6-----6-----x--x--9-----9-----6-----6----|
B|-#-----------------------------------------------------6-----6-----x--x--6-----6-----6-----6----|
G|-#-----------8-----#-----8-----10----#-----6-----------6-----6-----x--x--6-----6-----6-----6----|
D|------------------------------------------------------------------------------------------------|
A|------------------------------------------------------------------------------------------------|
E|------------------------------------------------------------------------------------------------|
+
e|-#-----------------------------------------------------6-----6-----6-----x--x--6-----6-----6----|
B|-#-----------------------------------------------------6-----6-----6-----x--x--6-----6-----6----|
G|-#-----------8-----#-----8-----7-----#-----6-----------6-----6-----6-----x--x--6-----6-----6----|
D|------------------------------------------------------------------------------------------------|
A|------------------------------------------------------------------------------------------------|
E|------------------------------------------------------------------------------------------------|
+
e|-#-----------------------------------------------------6-----6-----6-----9-----9-----6-----6----|
B|-#-----------------------------------------------------6-----6-----6-----6-----6-----6-----6----|
G|-#-----------8-----#-----8-----10----#-----6-----------6-----6-----6-----6-----6-----6-----6----|
D|------------------------------------------------------------------------------------------------|
A|------------------------------------------------------------------------------------------------|
E|------------------------------------------------------------------------------------------------|
+
e|-------6-----------6-----------6-----------6-----------6-----#-----6-----#-----6-----#-----6----|
B|-------6-----------6-----------6-----------6-----------6-----#-----6-----#-----6-----#-----6----|
G|-------6-----------6-----------6-----------6-----------6-----#-----6-----#-----6-----#-----6----|
D|------------------------------------------------------------------------------------------------|
A|-6-----------6-----------5-----------5-----------4----------------------------------------------|
E|------------------------------------------------------------------------------------------------|
+
e|-------6-----------6-----------6-----------6-----------6-----6-----x--x--x--x--6-----6-----6----|
B|-------6-----------6-----------6-----------6-----------6-----6-----x--x--x--x--6-----6-----6----|
G|-------6-----------6-----------6-----------6-----------6-----6-----x--x--x--x--6-----6-----6----|
D|------------------------------------------------------------------------------------------------|
A|-6-----------6-----------5-----------5-----------4----------------------------------------------|
E|------------------------------------------------------------------------------------------------|
+
e|-------6-----------6-----------6-----------6-----------9-----9-----x--x--x--x--9-----9-----9----|
B|-------6-----------6-----------6-----------6-----------9-----9-----x--x--x--x--9-----9-----9----|
G|-------6-----------6-----------6-----------6-----------9-----9-----x--x--x--x--9-----9-----9----|
D|------------------------------------------------------------------------------------------------|
A|-6-----------6-----------5-----------5-----------4----------------------------------------------|
E|------------------------------------------------------------------------------------------------|
+
e|-------6-----------6-----------6-----------6-----------6-----------6-----------6-----------6----|
B|-------6-----------6-----------6-----------6-----------6-----------6-----------6-----------6----|
G|-------6-----------6-----------6-----------6-----------6-----------6-----------6-----------6----|
D|------------------------------------------------------------------------------------------------|
A|-6-----------6-----------5-----------5-----------4-----------4-----------3-----------3----------|
E|------------------------------------------------------------------------------------------------|



INTERLUDE:
e|-------------------------------3-----#-----------------------------------x-----3-----3-----3----|
B|-------------------------------3-----#----------------------------------<4>----3-----3-----3----|
G|-------------x-----------x-----3-----#-----------------------x----------<4>----3-----3-----3----|
D|-8\----------0-----#-----0-----------------------8\----------x-----------x----------------------|
A|------------------------------------------------------------------------------------------------|
E|------------------------------------------------------------------------------------------------|
+
e|-------------------------------3-----#-----------------------------------3-----3-----3-----3----|
B|-------------0-----------x-----3-----#-----------------------------------3-----3-----3-----3----|
G|-------------0-----------x-----3-----#-----------------------x-----------3-----3-----3-----3----|
D|-8\----------0-----------x-----------------------8\----------x----------------------------------|
A|------------------------------------------------------------------------------------------------|
E|------------------------------------------------------------------------------------------------|



CHORUS I:
e|-------6-----------6-----------6-----------6-----------6-----#-----6-----#-----6-----#-----6----|
B|-------6-----------6-----------6-----------6-----------6-----#-----6-----#-----6-----#-----6----|
G|-------6-----------6-----------6-----------6-----------6-----#-----6-----#-----6-----#-----6----|
D|------------------------------------------------------------------------------------------------|
A|-6-----------6-----------5-----------5-----------4----------------------------------------------|
E|------------------------------------------------------------------------------------------------|
+
e|-------6-----------6-----------6-----------6-----------6-----#-----6-----x--x--6-----6-----6----|
B|-------6-----------6-----------6-----------6-----------6-----#-----6-----x--x--6-----6-----6----|
G|-------6-----------6-----------6-----------6-----------6-----#-----6-----x--x--6-----6-----6----|
D|------------------------------------------------------------------------------------------------|
A|-6-----------6-----------5-----------5-----------4----------------------------------------------|
E|------------------------------------------------------------------------------------------------|
+
e|-------6-----------6-----------6-----------6-----------6-----6-----x--x--------9-----9-----#----|
B|-------6-----------6-----------6-----------6-----------6-----6-----x--x-/9-----9-----9-----#----|
G|-------6-----------6-----------6-----------6-----------6-----6-----x--x-/9-----9-----9-----#----|
D|------------------------------------------------------------------------------------------------|
A|-6-----------6-----------5-----------5-----------4----------------------------------------------|
E|------------------------------------------------------------------------------------------------|
+
e|-------6-----------6-----------6-----------6-----------9-----9-----9-----9-----9-----9-----6----|
B|-------6-----------6-----------6-----------6-----------9-----9-----9-----9-----9-----9-----6----|
G|-------6-----------6-----------6-----------6-----------9-----9-----9-----9-----9-----9-----6----|
D|------------------------------------------------------------------------------------------------|
A|-6-----------6-----------5-----------5-----------4----------------------------------------------|
E|------------------------------------------------------------------------------------------------|
+
e|-------------------------------------------------------------6-----x--x--x--x--6-----6----------|
B|-------------------------------------------------------------6-----x--x--x--x--6-----6----------|
G|-8-----8-----8-----x--x--7-----7-----7-----x--x--6-----6-----6-----x--x--x--x--6-----6-----6----|
D|-x-----x-----x-----x--x--x-----x-----x-----x--x--x-----x-----x-----------------------------x----|
A|-6-----6-----6-----x--x--5-----5-----5-----x--x--4-----4-----4-----------------------------4/---|
E|------------------------------------------------------------------------------------------------|
+
e|-------------------------------------------------------------------6-----9-----9-----6----------|
B|-------------------------------------------------------------x--x--6-----6-----6-----6-----x--x-|
G|-8-----8-----8-----x--x--7-----7-----7-----x--x--6-----6-----x--x--6-----6-----6-----6-----x--x-|
D|-x-----x-----x-----x--x--x-----x-----x-----x--x--x-----x-----x--x--------------------------x--x-|
A|-6-----6-----6-----x--x--5-----5-----5-----x--x--4-----4----------------------------------------|
E|------------------------------------------------------------------------------------------------|
+
e|-------------------------------------------------------------6-----x--x--6-----6-----6-----x--x-|
B|-------------------------------------------------------------6-----x--x--6-----6-----6-----x--x-|
G|-8-----8-----8-----x--x--7-----7-----7-----x--x--6-----6-----6-----x--x--6-----6-----6-----x--x-|
D|-x-----x-----x-----x--x--x-----x-----x-----x--x--x-----x-----x----------------------------------|
A|-6-----6-----6-----6--6--5-----5-----5-----x--x--4-----4-----4----------------------------------|
E|------------------------------------------------------------------------------------------------|
+
e|------------------------------------------------------------------------------------------------|
B|------------------------------------------------------------------------------------------------|
G|-8-----8-----8-----x--x--7-----7-----7-----x--x--6-----6-----6-----x--x--5-----5-----5-----x--x-|
D|-x-----x-----x-----x--x--x-----x-----x-----x--x--x-----x-----x-----x--x--x-----x-----x-----x--x-|
A|-6-----6-----6-----6--6--5-----5-----5-----x--x--4-----4-----4-----4--4--3-----3-----3-----x--x-|
E|------------------------------------------------------------------------------------------------|




BRIDGE I:
e|-------------------------6-----------6-----#-----------------------6-----------6-----#----------|
B|-------------------------6-----------6-----#-----------------------6-----------6-----#----------|
G|-------------------------6-----------6-----#-----------------------6-----------6-----#----------|
D|------------------------------------------------------------------------------------------------|
A|------------------------------------------------------------------------------------------------|
E|-6-----------6-----------------------------------6-----------6----------------------------------|
+
e|-------------------------6-----------6-----#-----------------------6-----------6-----#----------|
B|-------------------------6-----------6-----#-----------------------6-----------6-----#----------|
G|-------------------------6-----------6-----#-----------------------6-----------6-----#----------|
D|------------------------------------------------------------------------------------------------|
A|-4-----------4-----------------------------------4----------<4>---------------------------------|
E|------------------------------------------------------------------------------------------------|
+
e|-------------------------6-----------6-----#-----------------------6-----------6-----#----------|
B|-------------------------6-----------6-----#-----------------------6-----------6-----#----------|
G|-------------------------6-----------6-----#-----------------------6-----------6-----#----------|
D|------------------------------------------------------------------------------------------------|
A|------------------------------------------------------------------------------------------------|
E|-6-----------6-----------------------------------6-----------6----------------------------------|
+
e|-------------------------6-----------6-----#-----------------------6-----------6-----#----------|
B|-------------------------6-----------6-----#-----------------------6-----------6-----#----------|
G|-------------------------6-----------6-----#-----------------------6-----------6-----#----------|
D|------------------------------------------------------------------------------------------------|
A|-4-----------4-----------------------------------4-----------4----------------------------------|
E|------------------------------------------------------------------------------------------------|
+
e|-------------------------6-----------6-----#-----------------------6-----------6-----#----------|
B|-------------------------6-----------6-----#-----------------------6-----------6-----#----------|
G|-------------------------6-----------6-----#-----------------------6-----------6-----#----------|
D|------------------------------------------------------------------------------------------------|
A|------------------------------------------------------------------------------------------------|
E|-6-----------6-----------------------------------6-----------6----------------------------------|
+
e|-------------------------6-----------6-----#-----------------------6-----------6-----#----------|
B|-------------------------6-----------6-----#-----------------------6-----------6-----#----------|
G|-------------------------6-----------6-----#-----------------------6-----------6-----#----------|
D|------------------------------------------------------------<4>---------------------------------|
A|-4-----------4-----------------------------------4-----------4----------------------------------|
E|------------------------------------------------------------------------------------------------|
+
e|-------------------------6-----------6-----#-----------------------6-----------6-----#----------|
B|-------------------------6-----------6-----#-----------------------6-----------6-----#----------|
G|-------------------------6-----------6-----#-----------------------6-----------6-----#----------|
D|------------------------------------------------------------------------------------------------|
A|------------------------------------------------------------------------------------------------|
E|-6-----------6-----------------------------------6-----------6----------------------------------|
+
e|-------------------------6-----------6-----#-----------------------6-----------6-----#----------|
B|-------------------------6-----------6-----#-----------------------6-----------6-----#----------|
G|-------------------------6-----------6-----#-----------------------6-----------6-----#----------|
D|------------------------------------------------------------------------------------------------|
A|-4-----------4-----------------------------------4-----------4----------------------------------|
E|------------------------------------------------------------------------------------------------|
+
e|-6-----6-----6-----------------5-----5-----------6-----6-----6-----------------5-----5-----5----||
A|-6-----6-----6-----------------5-----5-----------6-----6-----6-----------------5-----5-----5----||
G|-6-----6-----6-----------------5-----5-----------6-----6-----6-----------------5-----5-----5----|| x 7
D|------------------------------------------------------------------------------------------------||
A|------------------------------------------------------------------------------------------------||
E|-------------------3b----------------------------------------------3b---------------------------||
+
e|-6-----6-----6-----------------5----------------------------------------------------------------|
A|-6-----6-----6-----------------5----------------------------------------------------------------|
G|-6-----6-----6-----------------5----------------------------------------------------------------|
D|------------------------------------------------------------------------------------------------|
A|------------------------------------------------------------------------------------------------|
E|-------------------3b----------------------------------------------3b---------------------------|



CHORUS II:
e|-------6-----------6-----------6-----------6-----------6-----#-----6-----#-----6-----6-----6----|
B|-------6-----------6-----------6-----------6-----------6-----#-----6-----#-----6-----6-----6----|
G|-------6-----------6-----------6-----------6-----------6-----#-----6-----#-----6-----6-----6----|
D|------------------------------------------------------------------------------------------------|
A|-6-----------6-----------5-----------5-----------4----------------------------------------------|
E|------------------------------------------------------------------------------------------------|
+
e|-------6-----------6-----------6-----------6-----------6-----#-----6-----x--x--6-----6-----6----|
B|-------6-----------6-----------6-----------6-----------6-----#-----6-----x--x--6-----6-----6----|
G|-------6-----------6-----------6-----------6-----------6-----#-----6-----x--x--6-----6-----6----|
D|------------------------------------------------------------------------------------------------|
A|-6-----------6-----------5-----------5-----------4----------------------------------------------|
E|------------------------------------------------------------------------------------------------|
+
e|-------6-----------6-----------6-----------6-----------6-----6-----x--x--------9-----9-----9----|
B|-------6-----------6-----------6-----------6-----------6-----6-----x--x-/9-----9-----9-----9----|
G|-------6-----------6-----------6-----------6-----------6-----6-----x--x-/9-----9-----9-----9----|
D|------------------------------------------------------------------------------------------------|
A|-6-----------6-----------5-----------5-----------4----------------------------------------------|
E|------------------------------------------------------------------------------------------------|
+
e|-------6-----------6-----------6-----------6-----------9-----9-----9-----9-----9-----9-----6----|
B|-------6-----------6-----------6-----------6-----------9-----9-----9-----9-----9-----9-----6----|
G|-------6-----------6-----------6-----------6-----------9-----9-----9-----9-----9-----9-----6----|
D|------------------------------------------------------------------------------------------------|
A|-6-----------6-----------5-----------5-----------4----------------------------------------------|
E|------------------------------------------------------------------------------------------------|
+
e|------------------------------------------------------------------------------------------------||
B|------------------------------------------------------------------------------------------------||
G|-8-----8-----8-----x--x--8-----8-----8-----x--x--8-----8-----8-----x--x--x--x--8-----8--8--8----|| x 4
D|-x-----x-----x-----x--x--x-----x-----x-----x--x--x-----x-----x-----x--x--x--x--x-----x--x--x----||
A|-6-----6-----6-----x--x--6-----6-----6-----x--x--6-----6-----6-----x--x--x--x--8-----6--6--6----||
E|------------------------------------------------------------------------------------------------||



BRIDGE II:
e|------------------------------------------------------------------------------------------------|
B|------------------------------------------------------------------------------------------------|
G|------------------------------------------------------------------------------------------------|
D|------------------------------------------------------------------------------------------------|
A|------------------------------------------------------------------------------------------------|
E|-6-----------6-----------6-----------6-----------6-----------6-----------6-----------6----------|
+
e|------------------------------------------------------------------------------------------------|
B|------------------------------------------------------------------------------------------------|
G|------------------------------------------------------------------------------------------------|
D|------------------------------------------------------------------------------------------------|
A|-------6-----------6-----------6-----------6-----------6-----------6-----------6-----6/---------|
E|-4-----------4-----------4-----------4-----------4-----------4-----------4-----------4/---------|
+
e|------------------------------------------------------------------------------------------------|
B|------------------------------------------------------------------------------------------------|
G|------------------------------------------------------------------------------------------------|
D|------------------------------------------------------------------------------------------------|
A|/8-----------------8-----------8-----------8-----------8-----------8-----------8----------------|
E|/6-----------6-----------6-----------6-----------6-----------6-----------6-----------6\---------|
+
e|------------------------------------------------------------------------------------------------|
B|------------------------------------------------------------------------------------------------|
G|------------------------------------------------------------------------------------------------|
D|------------------------------------------------------------------------------------------------|
A|-------6-----------6-----------6-----------6-----------6-----------6-----------6-----6/---------|
E|\4-----------4-----------4-----------4-----------4-----------4-----------4-----------4/---------|
+
e|------------------------------------------------------------------------------------------------|
B|------------------------------------------------------------------------------------------------|
G|------------------------------------------------------------------------------------------------|
D|------------------------------------------------------------------------------------------------|
A|/8-----------------8-----------8-----------8-----------8-----------8-----------8----------------|
E|/6-----------6-----------6-----------6-----------6-----------6-----------6-----------6\---------|
+
e|------------------------------------------------------------------------------------------------|
B|------------------------------------------------------------------------------------------------|
G|------------------------------------------------------------------------------------------------|
D|------------------------------------------------------------------------------------------------|
A|-------6-----------6-----------6-----------6-----------6-----------6-----------6-----6/---------|
E|\4-----------4-----------4-----------4-----------4-----------4-----------4-----------4/---------|
+
e|------------------------------------------------------------------------------------------------|
B|------------------------------------------------------------------------------------------------|
G|------------------------------------------------------------------------------------------------|
D|------------------------------------------------------------------------------------------------|
A|/8-----------------8-----------8-----------8-----------8-----------8-----------8----------------|
E|/6-----------6-----------6-----------6-----------6-----------6-----------6-----------6\---------|
+
e|------------------------------------------------------------------------------------------------|
B|------------------------------------------------------------------------------------------------|
G|------------------------------------------------------------------------------------------------|
D|------------------------------------------------------------------------------------------------|
A|-------6-----------6-----------6-----------6-----------6-----------6-----------6-----6/---------|
E|\4-----------4-----------4-----------4-----------4-----------4-----------4-----------4/---------|
+
e|------------------------------------------------------------------------------------------------|
B|------------------------------------------------------------------------------------------------|
G|------------------------------------------------------------------------------------------------|
D|------------------------------------------------------------------------------------------------|
A|/8-----------------8-----------8-----------8-----------8-----------8-----------8----------------|
E|/6-----------6-----------6-----------6-----------6-----------6-----------6-----------6\---------|
+
e|------------------------------------------------------------------------------------------------|
B|------------------------------------------------------------------------------------------------|
G|------------------------------------------------------------------------------------------------|
D|------------------------------------------------------------------------------------------------|
A|-------6-----------6-----------6-----------6-----------6-----------6-----------6-----6/---------|
E|\4-----------4-----------4-----------4-----------4-----------4-----------4-----------4/---------|
+
e|------------------------------------------------------------------------------------------------|
B|------------------------------------------------------------------------------------------------|
G|------------------------------------------------------------------------------------------------|
D|------------------------------------------------------------------------------------------------|
A|/8-----------------8-----------8-----------8-----------8-----------8-----------8----------------|
E|/6-----------6-----------6-----------6-----------6-----------6-----------6-----------6\---------|
+
e|------------------------------------------------------------------------------------------------|
B|------------------------------------------------------------------------------------------------|
G|------------------------------------------------------------------------------------------------|
D|------------------------------------------------------------------------------------------------|
A|-------6-----6-----6-----6-----6-----6-----6-----6-----6-----6-----6-----6-----6-----6-----6----|
E|\4-----4-----4-----4-----4-----4-----4-----4-----4-----4-----4-----4-----4-----4-----4-----4----|
+
e|------------------------------------------------------------------------------------------------|
B|-------------------------------------------------------------------0-----0-----0-----0----------|
G|-------------------------------------------------------------------0-----0-----0-----0----------|
D|-------------------------------------------------------------------x-----x-----x-----x----------|
A|-8-----8-----8-----8-----8-----8-----8-----8-----8-----8-----8-----8-----8-----8-----8-----8----|
E|-6-----6-----6-----6-----6-----6-----6-----6-----6-----6-----6-----6-----6-----6-----6-----6----|
+
e|------------------------------------------------------------------------------------------------|
B|------------------------------------------------------------------------------------------------|
G|------------------------------------------------------------------------------------------------|
D|------------------------------------------------------------------------------------------------|
A|-6-----6-----6-----6-----6-----6-----6-----6-----6-----6-----6-----6-----6-----6-----6-----6----|
E|-4-----4-----4-----4-----4-----4-----4-----4-----4-----4-----4-----4-----4-----4-----4-----4----|
+
e|------------------------------------------------------------------------------------------------|
B|------------------------------------------------------------------------------------------------|
G|------------------------------------------------------------------------------------------------|
D|------------------------------------------------------------------------------------------------|
A|-8-----8-----8-----8-----8-----8-----8-----8-----8-----8-----8-----8-----8-----8-----8-----8----|
E|-6-----6-----6-----6-----6-----6-----6-----6-----6-----6-----6-----6-----6-----6-----6-----6----|



OUTRO:
e|-------6-----------6-----------6-----------6-----------6-----------6-----------6-----------6----||
B|-------6-----------6-----------6-----------6-----------6-----------6-----------6-----------6----||
G|-------6-----------6-----------6-----------6-----------6-----------6-----------6-----------6----|| x 7
D|------------------------------------------------------------------------------------------------||
A|------------------------------------------------------------------------------------------------||
E|-6-----------6-----------5-----------5-----------4-----------4-----------4-----------3----------||
+
e|-------6-----------6-----------6-----------6-----6-----#----------------------------------------|
B|-------6-----------6-----------6-----------6-----6-----#----------------------------------------|
G|-------6-----------6-----------6-----------6-----6-----#----------------------------------------|
D|-------------------------------------------------x-----x----------------------------------------|
A|-------------------------------------------------x-----x----------------------------------------|
E|-6-----------6-----------5-----------5-----------4-----#----------------------------------------|



SONG STRUCTURE:
INTRO
VERSE I
INTERLUDE
CHORUS I
BRIDGE I
CHORUS II
BRIDGE II
OUTRO



That's it.  Please feel free to leave any comments, questions, or requests.
Cheers!
-Bennyshambles78-


Добавлено: 17.06.2016
Другие материалы по этой песне:
  • Аккорды и текст

Страница создана 17.06.2016
http://primanota.ru/gogogo-airheart/when-flesh-hits-chords.htm
Привет, Гость.
Предлагаем пройти революционный курс по гитаре.
Подарок от PrimaNota.Ru, забирай!