PrimaNota.ru - самый крупный в мире бесплатный архив песенных текстов, аккордов, табулатур и нот


Godsmack - Time Bomb - аккорды и текст, таба, бас-таба, видео

Регистрация Запомнить меня
Войти через:  Facebook Google Twitter Vk Yandex Mail.ru

Godsmack - Time Bomb - аккорды и текст, таба, бас-таба, видео

Печатать
Просмотров: 226
Time Bomb
Godsmack
Godsmack - "Time Bomb"
>From the album "All Wound Up"
Tabbed by Jason Kenny
(dietsleep@hotmail.com)

Drop-D Tuning (low to high: D A D G B E)

Riff A
D|5/7-7---7---7-7---7---7-8---8---|5/7-7---7---7-7-----------------|
A|3/5-5---5---5-5---5---5-6---6---|3/5-5---5---5-5-----------------|
D|--------------------------------|--------------------------------|


D|5/7-7---7---7-7---7---7-10------|5/7-7---7---7-7---0-0-0-8---8---|
A|3/5-5---5---5-5---5---5-8-------|3/5-5---5---5-5---------6---6---|
D|--------------------------------|--------------------------------|
                                                     p.m..

Riff B
D|--------------------------------|
A|5h7-7---7-------5h7-7-8---5---5-|
D|5h7-7---7---5-5-5h7-7-8---5---5-|
              p.m.

Riff C (synth for guitar)
D|--------------------------------|
A|--------------------------------|
D|0-0-0-0-3-0-0-0-0-3-0-0-5-0-6-0-|

Riff C x 6
Riff A x 2
Riff B x 3 1/2
Rest for 1/2
Riff A x 2
Riff B x 4
Riff C x 4
Riff A x 4
Riff B x 4
Riff C x 10
*The rest of the song alternates between variations of the chords in Riff A 
and Riff C added in at parts. Not worth tabbing out, I have faith that 
you'll get it*
     
Добавлено: 16.10.2013
Другие материалы по этой песне:

Страница создана 23.02.2012
http://primanota.ru/godsmack/time-bomb-chords.htm
Привет, Гость.
Предлагаем пройти революционный курс по гитаре.
Подарок от PrimaNota.Ru, забирай!