PrimaNota.ru - самый крупный в мире бесплатный архив песенных текстов, аккордов, табулатур и нот


Godsmack - Re align - таба, видео

Регистрация Запомнить меня
Войти через:  Facebook Google Twitter Vk Yandex Mail.ru

Godsmack - Re align - таба, видео

Печатать
Просмотров: 190
Уроки эстрадного вокала в Санкт-Петербурге


RE-ALIGN: GODSMACK

-------------------------------------------------
This is my first tab so write it and help me
make corrections
-------------------------------------------------

Drop C tuning
D/-------------------------------------
A/-------------------------------------
F/-------------------------------------
C/--0--0-----2/-3---3---2-----0--0-----
G/--0--0-----2/-3---3---2-----0--0-----
C/--0--0-----2/-3---3---2-----0--0-----


(After Second Chorus)
D/----5------5--------5----5------5---------
A/-8---8---6---6----8---8----8--6---6-------
F/------------------------------------------
C/------------------------------------------
G/------------------------------------------
C/------------------------------------------
	(listen to the song to get strumming pattern) 

Добавлено: 27.02.2014
Другие материалы по этой песне:
  • Аккорды и текст

Страница создана 27.02.2014
http://primanota.ru/godsmack/re-align-2-chords.htm
Привет, Гость.
Предлагаем пройти революционный курс по гитаре.
Подарок от PrimaNota.Ru, забирай!