PrimaNota.ru - самый крупный в мире бесплатный архив песенных текстов, аккордов, табулатур и нот


Godsmack - Goin Down - текст песни, бас-таба, видео

Регистрация Запомнить меня
Войти через:  Facebook Google Twitter Vk Yandex Mail.ru

Godsmack - Goin Down - текст песни, бас-таба, видео

Печатать
Просмотров: 96
Авторы музыки: Sully Erna, Tony Rombola, Robbie Merrill
Авторы текста: Sully Erna
Artist:Godsmack
Song:Goin Down
Tabbed By:Gary Hricewich
Email:snapper2001@msn.com
 
Drop D Tuning [D A D G]
 
                                      
  Intro + Verse 
G---------------------|---------------|
D---------------------|---------------|
A--------3-5-3--------|---3-5-3-------|
D---0--5-------5-3-0--|-5-------5-3-0-|
                                      
                                                            
  Chorus Start
G---------------|-------------|-------------|---------------|
D---------------|-------------|-------------|---------------|
A---5-5-5-5-5-5-|-3-3-3-3-3-3-|-2-2-2-2-2-2-|-1-1-1-1-0-3-0-|
D---------------|-------------|-------------|---------------|
                                                            
                                                                 
   
G--------------------|---------------|-------------|-------------|
D--------------------|---------------|-------------|-------------|
A--------3-5-3-------|---3-5-3-------|-5-5-5-5-5-5-|-8-8-8-8-8-8-|
D---0--5-------5-3-0-|-5-------5-3-0-|-------------|-------------|
                                                                 
                                                                   
 
G---------------|---------------|------------------|---------------|
D---------------|---------------|------------------|---------------|
A---7-7-7-7-7-7-|-6-6-6-6-0-3-0-|------3-5-3-------|---3-5-3-------|
D---------------|---------------|-0--5-------5-3-0-|-5-------5-3-0-|
                                                                   
                                    
                        Chorus End
G----------------------|------------|
D----------------------|------------|
A--------3-5-3---------|------------|
D---0--5-------5-3-0---|-0-0---5\-0-|
                                    
                                                                          
     Guitar Lead Start   
G---|------------------|---------------|-------------|------------------|-|
D---|*-----------------|---------3-----|-------------|-----------------*|-|
A---|*-5-5-5-5-5-5-5-5-|-5-5-5-5---5-3-|-3-3-3-3-3-3-|-2-2-2-2-0-3-0-5-*|-|
D---|------------------|---------------|-------------|------------------|-|
                                                                          
                                                                      
   
G-------------------|----------------|----------------|---------------|
D-------------------|----------------|----------------|---------------|
A---5-5-5-5---5---8-|-8-8--8-8-8-8-7-|-7-7--7-7-7-7-6-|-6-6-6-0-3-0---|
D-----------7---7---|----------------|----------------|-------------0-|
                                                                      
                                                     
                                    Guitar Lead End
G-----------|-----|------------------|---------------|
D-----------|-----|------------------|---------------|
A-----------|-----|------3-5-3-------|---3-5-3-----5-|
D---0----0--|---0-|-0--5-------5-3-0-|-5-------5-3---|
                                                     
                                                                          
  Outro 
G---------------|-------------|-----------|-----------------|-------------|
D---------------|-------------|-----------|-----------------|-------------|
A---5-5-5-5-5-5-|-3-3-3-3-3-3-|-2-2-2-2-2-|-1-1-1-1-0-3-0-5-|-5-5-5-5-5-5-|
D---------------|-------------|-----------|-----------------|-------------|
                                                                          
                                                               
  
G---------------|-------------|-----------------|--------------|
D---------------|-------------|-----------------|--------3-----|
A---3-3-3-3-3-3-|-2-2-2-2-2-2-|-1-1-1-1-0-3-0-5-|-5-5--5---5-8-|
D---------------|-------------|-----------------|--------------|
                                                               
                                                
 
G---------------|-------------|-----------------|
D---------------|-------------|-----------------|
A---8-8-8-8-8-8-|-7-7-7-7-7-7-|-6-6-6-6-0-3-0---|
D---------------|-------------|---------------0-|
                                                
                                                              
 
G--------------------|---------------|------------------|-----|
D--------------------|---------------|------------------|-----|
A--------3-5-3-------|---3-5-3-------|------3-5-3-------|-----|
D---0--5-------5-3-0-|-5-------5-3-0-|-0--5-------5-3-0-|-0-0-|
                                                              
                                                              
                                                
                                                               
                                                                          
                                                     
     
Добавлено: 21.08.2013
Другие материалы по этой песне:

Страница создана 02.03.2012
http://primanota.ru/godsmack/goin-down-chords.htm
Привет, Гость.
Предлагаем пройти революционный курс по гитаре.
Подарок от PrimaNota.Ru, забирай!