PrimaNota.ru - самый крупный в мире бесплатный архив песенных текстов, аккордов, табулатур и нот


Godhead Silo - Booby Trap - аккорды и текст, таба, видео

Регистрация Запомнить меня
Войти через:  Facebook Google Twitter Vk Yandex Mail.ru

Godhead Silo - Booby Trap - аккорды и текст, таба, видео

Печатать
Просмотров: 107
Уроки эстрадного вокала в Санкт-Петербурге
Booby Trap
Godhead Silo
		   ---------------------------
booby trap by godhead silo
---------------------------
There are currenty no godhead silo tabs on ! (shame, shame....)
The first one transcribed by Kent Randell KRANDELL@NMU.EDU
                    "http://vm.nmu.edu/~krandell/http/lcl.html"
Intro riff: (after bass solo that is just the main riff)
    (Eb)  (F)    (G)    (Bb)
e|--------------------------------------------------------------------|
B|--8-----------------------------------------------------------------|
G|--8------10----12------15-------------------------------------------|
D|--8------10----12------15-------------------------------------------|
A|--6------8-----10------13-------------------------------------------|
E|--------------------------------------------------------------------|

The main riff:(x4)
    (F5)           (C)     (Eb)      (G5)       (F)
e|--------------------------------------------------------------------|
B|-----------------5-5-5---8-8-8-8-8----------------------------------|
G|--10-10-10-10-10-5-5-5---8-8-8-8-8-12-12-12---10--------------------|
D|--10-10-10-10-10-5-5-5---8-8-8-8-8-12-12-12---10--------------------|
A|--8--8--8--8--8--3-3-3---6-6-6-6-6-10-10-10---8---------------------|
E|--------------------------------------------------------------------|

Intro riff once

Main riff 4x again

Intro riff twice

Main riff 4x again

ending riff (4x quiet  4x loud)
e|--------------------------------------------------------------------|
B|--------------------------------------------------------------------|
G|-8-8-8-8-8-8-8-8--8-8-8-8-8-12-12-12---10--10--10--10-10-10-10-12-12|
D|-8-8-8-8-8-8-8-8--8-8-8-8-8-12-12-12---10--10--10--10-10-10-10------|
A|-6-6-6-6-6-6-6-6--6-6-6-6-6-10-10-10---8---8---8---8--8--8--8--10-10|
E|--------------------------------------------------------------------|

Main riff once.     
Добавлено: 13.07.2013
Другие материалы по этой песне:
  • Аккорды и текст

Страница создана 06.03.2012
http://primanota.ru/godhead-silo/booby-trap-chords.htm
Привет, Гость.
Предлагаем пройти революционный курс по гитаре.
Подарок от PrimaNota.Ru, забирай!