PrimaNota.ru - самый крупный в мире бесплатный архив песенных текстов, аккордов, табулатур и нот


Godgory - Conspiracy Of Silence - таба, видео

Регистрация Запомнить меня
Войти через:  Facebook Google Twitter Vk Yandex Mail.ru

Godgory - Conspiracy Of Silence - таба, видео

Печатать
Просмотров: 120
Авторы музыки: Erik Andersson
Авторы текста: Fredrik Olsson
                   GODGORY - CONSPIRACY OF SILENCE
                     From the album RESURRECTION
                    Copyright  1999 NUCLEAR BLAST
                      Version  1.0 - APRIL 2001

Transcribed by: Deady666

For Questions, Comments, Newest Version, or Corrections contact
 Deady666 at thedeadman@libertysurf.fr

Check Out Death Warp, With More Transcriptions On It:
 http://www.sorrowsend.com/DeathWarp/

..  - palm mute          /  - slide up to
 \  - slide down to      ~  - vibrato
 h  - hammer on          b  - bend
 p  - pull off            Suffixes for bend
 t  - tremelo             ph - pinch harmonic
                           f - full bend    h - half bend
*  - see comment           r - release      t - tap bend
X  - percussion mute       ~ - vibrato bend
@  - slight palm mute     () - ghost note, sustained note

-- Conspiracy Of Silence --
Tuning : Normal (EBGDAE)


Intro (distortion)
|---------------------------------------|
|---------------------------------------|
|----5-----7--5-----5-----7--5-----7--9-|Gtr
|-2--5--2--7--5--2--5--2--7--5--7--7--9-| I & II
|-2--3--2--5--3--2--3--2--5--3--7--5--7-|
|-0-----0--------0-----0--------5-------|

Verse (clean)
Riff V.1
|---------------------------------0-----------------|
|-----------------------0-------0----------8--------|
|------0-------0--------797---8-------8----7--------0-|Gtr
|---------------------7---7---9--------5------------| I
|----2-------3------0---------------------------3---|
|--0-----0-1----------------------------------1-----|
|                                                   |
|-------------------5-----7----------9--------3-----|
|-------------------5-----7----------9--------3-----|
|------0-------0----7-----9---------10--------5-----|Gtr
|-------------------7-----9---------10--------5-----| II
|----2-------3------5-----7----------9--------3-----|
|--0-----0-1--------5-----7----------9--------3-----|

Riff V.2
|-----------------------------------0---------------------|
|-----------------------0---------0---0----------8--------|
|------0-------0--------9---8-----------8------7--------0-|Gtr
|---------------------7---7---9-7---------9--5------------| I
|----2-------3------0---------------------------------3---|
|--0-----0-1----------------------------------------1-----|
|                                                         |
|-------------------5-----7-----------------9-------3-----|
|-------------------5-----7-----------------9-------3-----|
|------0-------0----7-----9----------------10-------5-----|Gtr
|-------------------7-----9----------------10-------5-----| II
|----2-------3------5-----7-----------------9-------3-----|
|--0-----0-1--------5-----7-----------------9-------3-----|

Riff V.3
|--------0----------0----------------------0---------------------|
|---------0----------0---------0---------0---0----------8--------|
|------0----------0------------9---8-----------8------7--------0-|Gtr
|----------------------------7---7---9-7---------9--5------------| I
|----2----------3----------0---------------------------------3---|
|--0--------0-1--------------------------------------------1-----|
|                                                                |
|--------0----------0------5-----7-----------------9-------3-----|
|---------0----------0-----5-----7-----------------9-------3-----|
|------0----------0--------7-----9----------------10-------5-----|Gtr
|--------------------------7-----9----------------10-------5-----| II
|----2----------3----------5-----7-----------------9-------3-----|
|--0--------0-1------------5-----7-----------------9-------3-----|

Riff V.4
|--------0----------0----------0--------0---------------------|
|---------0----------0--------0-0------0-0----------8-8-------|
|------0----------0----------9---9----8---8------7--7-7-----0-|Gtr
|---------------------------7-----7--9-----9----5-------------| I
|----2----------3----------0--------0--------0-------------3--|
|--0--------0-1------------------------------------------1----|
|                                                             |
|--------0----------0------5-------7----------9----------3----|
|---------0----------0-----5-------7----------9----------3----|
|------0----------0--------7-------9---------10----------5----|Gtr
|--------------------------7-------9---------10----------5----| II
|----2----------3----------5-------7---------9-----------3----|
|--0--------0-1------------5-------7---------9-----------3----|

Bridge
|--------------------------|
|--------------------------|
|--------------------------|Gtr
|--------------------------| I
|-------(can't hear)-------|(clean)
|--------------------------|
|                          |
|--------------------------|
|--------------------------|
|--------------------------|Gtr
|-7-------9-----10------12-| II
|-7-------9-----10------12-| (distortion)
|-5-------7------8------10-|

Chorus (distortion)
|---------------------------------------------------------|
|---------------------------------------------------------|
|----7--5--7-----7--5--7-----7--5--7-----7--5--7-----7--9-|Gtr
|-2--7--5--7--2--7--5--5--2--7--5--7--2--7--5--7--5--7--9-| I & II
|-2--5--3--5--2--5--3--5--2--5--3--5--2--5--3--5--5--5--7-|
|-0-----------0-----------0-----------0-----------3-------|

- Verse (play Riff V.2 and Riff V.4)
- Chorus

First Solo (clean)

Part I (3:56 - 4:28)
|---------------------------------------------------------------------------
----------------|
|-----------------------------------------8-7-----------------------10-8-7-8
/10-10----------|
|----------------9/11-11/12-12---------------9--7-7--9-9--------------------
----------------|Gtr
|---------------------------------------------------------------------------
----------------| I
|---------------------------------------------------------------------------
----------------|
|---------------------------------------------------------------------------
----------------|
|
|
|-------------7-------------------------------------------------7-----------
----------5-----|
|----7-7h8p7---7---------------8-7---7-7h8-------------7-7h8p7---7----------
-----------5-8-7|
|---9-------9---9-------------9---9-------------------9-------9---9---------
---------7--7---|Gtr
|--9---------9---------------9-----9-----------------9---------9------------
--------7-------| II
|(7)----------------------(10)---------------------(7)----------------------
---7-7h9--------|
|---------------------------------------------------------------------------
----------------|

|--10/12---------------------------------------------------10-12-12---------
--------|
|-------12----------12--------7-8-10-7-7h8-8------------12x-----------------
--------|
|-------------------12--------------------------------12x-------------------
--------|Gtr
|---------------------------------------------------------------------------
--------| I
|---------------------------------------------------------------------------
--------|
|---------------------------------------------------------------------------
--------|
|
|
|--------------------7------------------------------------------------------
----7---|
|----------7-7h8p7----7----------------------8-7--7h8-----------------7-7h8p
7----7--|
|---------9-------9----9--------------------9---9--------------------9------
-9----9-|Gtr
|--------9---------9-----------------------9------------------------9-------
--9-----| II
|------(7)------------------------------(10)----------------------(7)-------
--------|
|---------------------------------------------------------------------------
--------|

|--12-10---------------------------------------|
|--------13-12-12--(12)-13-13\12--10--10-13-12-|
|----------------------------------------------|Gtr
|----------------------------------------------| I
|----------------------------------------------|
|----------------------------------------------|
|                                              |
|------------------7----------------8----------|
|-----------------8-----------------8----------|
|----------------7------------------7----------|Gtr
|----------------------------------------------| II
|----------------------------------------------|
|----------------------------------------------|


Part II (4:28 - 4:58)
|------------------------------------12-10--------------------------------10
/12-10---|
|---------------10-8-7-8/10-7/8----12-----13-11h12-10--------10/12----------
------13-|
|------------------------------9--9------------------12-11-12---------------
---------|Gtr
|---------------------------------------------------------------------------
---------| I
|---------------------------------------------------------------------------
---------|
|---------------------------------------------------------------------------
---------|
|
|
|-------------7--------------<    can't hear
>-----------------------------7------|
|----7-7h8p7---7-------------<------8-7---7-7h8->--------------------7-7h8p7
---7-----|
|---9-------9---9------------<-----9---9-------->-------------------9-------
9---9----|Gtr
|--9---------9---------------<----9-----9------->------------------9--------
-9-------| II
|(7)-------------------------<-(10)------------->----------------(7)--------
---------|
|----------------------------<   suppositions
>------------------------------------|

|-------------10--12/15-12------------------------------12-15-12h14-12-10-10
h12-------------|
|-12-10--10-12--12--------15-15-12-10-12-------10--10h12--------------------
----------------|
|------------------------------------------------12-------------------------
----------------|Gtr
|---------------------------------------------------------------------------
----------------| I
|---------------------------------------------------------------------------
----------------|
|---------------------------------------------------------------------------
----------------|
|
|
|------------5-------------------------------------7------------------------
----------------|
|-------------5-8-7-----------------------7-7h8p7---7-----------------------
-----8-7---7-7h8|
|-----------7--7-------------------------9-------9---9----------------------
----9---9-------|Gtr
|----------7----------------------------9---------9-------------------------
---9-----9------| II
|-----7-7h9---------------------------(7)-----------------------------------
(10)------------|
|---------------------------------------------------------------------------
----------------|

|-----------------------------9h10-12-------------------------|
|-13-12-10--------10/12-12-----------13-12-13--10-------------|
|---------12-11-12---------------------------12---------------|Gtr
|-------------------------------------------------------------| I
|-------------------------------------------------------------|
|-------------------------------------------------------------|
|                                                             |
|--------------------------10--10---------------------8-------|
|---------------------------8----8-------------------8-8------|
|------------------------7--7-----7----------------10---10----|Gtr
|-----------------------7------------------------10-------10--| II
|---------------------10------------------------8-----------8-|
|-------------------------------------------------------------|

Second Solo (distortion)
|---------------------------------------------------------------------------
--------|
|---------------------------------------------------------------------------
--------|
|----------------------------------------------------------5----------------
--------|Gtr
|-xxxxxxxx--------------------2----------------------------5----------------
--------| I
|-xxxxxxxx--------------------2----------------------------3----------------
--------|
|-xxxxxxxx--------------------0---------------------------------------------
--------|
|
|
|-----------------------15-17-19hb-17-15------------------------------------
--------|
|------------------15-17----------------17-17\15----------------------------
--------|
|----------12h14h15-----------------------------16-14-16hb-14---------------
--------|Gtr
|--12h14h15--------------------------------------------------17-14-17-16/17-
--------| II
|--------------------------------------------------------------------------1
7-------|
|---------------------------------------------------------------------------
-17-15--|

|----------------------------------------------------------------------|
|----------------------------------------------------------------------|
|----------------------------------------------------------5-----------|Gtr
|-------------------------2--------------------------------5-----------| I
|-------------------------2--------------------------------3-----------|
|-------------------------0--------------------------------------------|
|                                                                      |
|----------------------------------------------------15-17-17--15------|
|-------------------------17hb-15------------17-17/19------------19-15-|
|-----------------12h14h15-------17-16hb-14----------------------------|Gtr
|---------12h14h15-------------------------17--------------------------| II
|-12h14h15-------------------------------------------------------------|
|----------------------------------------------------------------------|

|---------------------------------------------------------------------------
-|
|---------------------------------------------------------------------------
-|
|-------------------------------------------------------------5-------------
-|Gtr
|------------------------------------2------------------------5-------------
-| I
|------------------------------------2------------------------3-------------
-|
|------------------------------------0--------------------------------------
-|
|
|
|-171514---------------------------------------------------15-17-15-19/20-17
-|
|-------15--15-----------------------------------17---17-19-----------------
-|
|---------14--14----14------14-------16-14--16-14---------------------------
-|Gtr
|---------------1716--1716----1716--------17--------------------------------
-| II
|-------------------------17------------------------------------------------
-|
|---------------------------------------------------------------------------
-|

|---------------------------------------------------------------------------
--------|
|---------------------------------------------------------------------------
--------|
|-------------------------------------------5-------------------------------
--------|Gtr
|--------------------2----------------------5-----------7-------------------
--------| I
|--------------------2----------------------3-----------7-------------------
--------|
|--------------------0----------------------------------5-------------------
--------|
|
|
|--15-14-15-17-15p14-15-14-------------------------------------------------1
5-17-19-|
|-------------------------15----15----------17-15---------------------17-19-
--------|
|---------------------------14----16-16hb--------16-17--15hb--12-14---------
--------|Gtr
|-----------------------------17--------------------------------------------
--------| II
|---------------------------------------------------------------------------
--------|
|---------------------------------------------------------------------------
--------|

then play chorus till the end.

Check Out Death Warp, With More Transcriptions On It:
 http://www.sorrowsend.com/DeathWarp/
Добавлено: 30.07.2012
Вам также может быть интересно:
Другие материалы по этой песне:
  • Аккорды и текст

Страница создана 30.07.2012
http://primanota.ru/godgory/conspiracy-of-silence-chords.htm
Привет, Гость.
Предлагаем пройти революционный курс по гитаре.
Подарок от PrimaNota.Ru, забирай!