PrimaNota.ru - самый крупный в мире бесплатный архив песенных текстов, аккордов, табулатур и нот


Godgory - Adultery - текст песни, таба, видео

Регистрация Запомнить меня
Войти через:  Facebook Google Twitter Vk Yandex Mail.ru

Godgory - Adultery - текст песни, таба, видео

Печатать
Просмотров: 141
Авторы музыки: Erik Andersson
Авторы текста: Fredrik Olsson
                          GODGORY - ADULTERY
                     From the album RESURRECTION
                    Copyright  1999 NUCLEAR BLAST
                       Version 1.0 - APRIL 2001

Transcribed by: Deady666

For Questions, Comments, Newest Version, or Corrections contact
 Deady666 at thedeadman@libertysurf.fr

Check Out Death Warp, With More Transcriptions On It:
 http://www.sorrowsend.com/DeathWarp/

..  - palm mute          /  - slide up to
 \  - slide down to      ~  - vibrato
 h  - hammer on          b  - bend
 p  - pull off            Suffixes for bend
 t  - tremelo             ph - pinch harmonic
                           f - full bend    h - half bend
*  - see comment           r - release      t - tap bend
X  - percussion mute       ~ - vibrato bend
@  - slight palm mute     () - ghost note, sustained note

-- Adultery --
Tuning : Dropped D (low E-string 1 step down)

It's very difficult to hear every notes played so this is not exact but
it's sounds well.

Gtr I : accoutic
Gtr II : heavy distortion

Intro (Gtr I)
|---------------------------------------------------------------|
|------------------------------------------5--8-----------------|
|-------5---7/9-7----------------5-------5------9-------7/9-7h9-|
|---2/3-----------10-9-7-----2/3---2/3-5----------10------------|
|-0------------------------0-------------------------10---------|
|---------------------------------------------------------------|

|-8-----7-----5-----3-----0-------0h1p0---0---------------|
|---0-----0-----0-----0-----0---0-------3---3/5-3-1-0-----|
|-----0-----0-----0-----0-----0-----------------------0-2-|
|---------------------------------------------------------|
|---------------------------------------------------------|
|---------------------------------------------------------|

|----------------------------------------------------------|
|-----10------8--8-----10-------5------5---3---------5-----|
|---9-------9------9------9-------4-5----4-----4---4---4---|
|-7-------7----------7------7--------------------5-------7-|
|----------------------------------------------------------|
|----------------------------------------------------------|


Verse (Gtr I)
|-------------0------------------------------|
|-------1-----1-----3--6-5-3-----3-----3---3-|
|-----2-----2------------------5---5-4---4---|
|---2-----2------------------5---------------|
|-0------------------------------------------|
|--------------------------------------------|

|-------------3--------------5-----------------|
|-------1-----1-----3--6h5h3-------3-----3---3-|
|-2---2-----2--------------------5---5-4---4---|
|---2-----2--------------------5---------------|
|----------------------------------------------|
|----------------------------------------------|

|-------------0------------------------------|
|-------1-----1-----3--6-5-3-----3-----3---3-|
|-2-----2-----2------------------5---5-4---4---|
|---2-----2------------------5---------------|
|--------------------------------------------|
|--------------------------------------------|

|-------------3--------------5-----------------|
|-------1-----1-----3--6h5h3-------3-----3---3-|
|-2---2-----2--------------------5---5-4---4---|
|---2-----2--------------------5---------------|
|----------------------------------------------|
|----------------------------------------------|

Pre-Chorus
|--------------------------------------5------------------------------------
----|
|---6---5h6-----6---5h6-----6---5h6------6---8-6---6------6---5h6-----6---5h
6---|
|-----7-----5-----7-----5-----7-----5------7-----7---5------7-----5-----7---
--5-|Gtr
|---------------------------------------------------------------------------
----| I
|---------------------------------------------------------------------------
----|
|--8----------8-----------7-----------------------------8-----------8-------
----|
then...
|-----------------|
|-----------------|
|-----------------|Gtr
|--5-7-8-10--xxxx-| II
|--5-7-8-10--xxxx-|
|--5-7-8-10--xxxx-|

Chorus
<------------ twice ------------->
|--------------------------------|-----|
|--------------------------------|-----|
|-7--------------7---------------|--7--|Gtr
|-7----8----5----7----8----5--10-|--7--| II
|-5----8----5----5----8----5--10-|--5--|
|------8----5---------8----5--10-|-----|
|                                |
|---0----1---------0----1--------|
|--1------1--3----1------1---3---|
|-------------2---------------2--|Gtr
|-3--------------3---------------| I
|------1--------------1----------|
|-----------5--------------5---3-|

play verse, pre-chorus and chorus

Solo (Gtr I)
|---5/7-5--7/8-8/10-10--10-8-7-8-10-7--/8-7------------8--------------------
----|
|-5-----------------------------------------10-8----10----------------------
----|
|-------------------------------------------------9-------< too fast for me
>---|
|---------------------------------------------------------------------------
----|
|---------------------------------------------------------------------------
----|
|---------------------------------------------------------------------------
----|

|------7-8--7-8-8/10--8-10-12-10--------12--10h8h7-8h7h5-7h5h3--------5-7--8
-5-----|
|-9h10---------------------------10--10------------------------3/5-5--------
---6-3-|
|---------------------------------------------------------------------------
-------|
|---------------------------------------------------------------------------
-------|
|---------------------------------------------------------------------------
-------|
|---------------------------------------------------------------------------
-------|

|------8-10-8--------------8-------------------------------10-12--10--------
-----------|
|-8-10--------11-10/11-11----8h10-8----------------9/10-13-----------13-9h10
-8----8-10-|
|-----------------------------------10-9-10/12------------------------------
---10------|
|----------------------------------------------12---------------------------
-----------|
|---------------------------------------------------------------------------
-----------|
|---------------------------------------------------------------------------
-----------|

|--------------------------------10-10-|
|-10-8----8-------10-13-13-10-13-------|
|------10---10-10----------------------|
|--------------------------------------|
|--------------------------------------|
|--------------------------------------|
|                                      |
|--------------------------------------|
|--------------------------------------|
|--------------------------------------|Gtr
|---------5----7----8----10----x-x-x-x-| II
|---------5----7----8----10----x-x-x-x-|
|---------5----7----8----10----x-x-x-x-|

play chorus till 5:23 with fade out then

play this 3 times
|---0----1---------0----1--------|
|--1------1--3----1------1---3---|
|-------------2---------------2--|Gtr
|-3--------------3---------------| I
|------1--------------1----------|
|-----------5--------------5---3-|

then
|---0----1---------0----1--------------------0---------|
|--1------1--3----1------1---3-------------3---3-------|
|-------------2------------------2-------2-------2-----|Gtr
|-3--------------3---------------------0-----------0---| I
|------1--------------1--------------------------------|
|-----------5--------------5---------0---------------0-|


Check Out Death Warp, With More Transcriptions On It:
 http://www.sorrowsend.com/DeathWarp/
Добавлено: 17.04.2012
Вам также может быть интересно:
Другие материалы по этой песне:

Страница создана 23.03.2012
http://primanota.ru/godgory/adultery-chords.htm
Привет, Гость.
Предлагаем пройти революционный курс по гитаре.
Подарок от PrimaNota.Ru, забирай!