PrimaNota.ru - самый крупный в мире бесплатный архив песенных текстов, аккордов, табулатур и нот


Godflesh - Voidhead - текст песни, таба, видео

Регистрация Запомнить меня
Войти через:  Facebook Google Twitter Vk Yandex Mail.ru

Godflesh - Voidhead - текст песни, таба, видео

Печатать
Просмотров: 133
Уроки эстрадного вокала в Санкт-Петербурге
Song: Voidhead

Artist: Godflesh

Album: Hymns

Tuning Low to High: BEADF#B

Intro:
|--------------------------|
|----Let it ring out-------|
|--------------------------|
|--0-----------------------|
|--0-----------------------|
|--0-----------------------|


Riff 1a:

(Bend up on the 4th fret so it's in unison with the open string)
|--------------------------|
|--------------------------|
|--------------0--0-0--0---|
|--------------4--4-4--4---| x4
|--------------------------|
|--2-2-5--2-5--------------|


Riff 1b:

(Bends here have more vigor)
|--------------------------|     |-----------------------------|
|--------------------------|     |-----------------------------|
|--------------0--0-0--0---|     |-----------------------------|
|--------------4--4-4--4---| X3  |--------------7---7--7-------| X1
|--------------------------|     |--------------5---5--5-------|
|--2-2-5--2-5--------------|     |--2-2-5--2-0----X------------|



Riff 2a

|--------------------------|     |-----------------------------|
|--------------------------|     |-----------------------------|
|--------------------------|     |-----------------------------|
|--------------------------| X7  |-----------------------------| X1
|--------------------------|     |-----------------------------|
|--0--2-2-2---0---2-2------|     |--0--2-2-2---0---2-2---/15~--|

Riff 2b

|--------------------------|     |-----------------------------|
|--------------------------|     |-----------------------------|
|--------------------------|     |-----------------------------|
|--------------------------| X7  |-----------------------------| X1
|--------------------------|     |-----------------------------|
|--0--2-2-2---0---2-2------|     |--0--2-2-2---0---2-2---/17~--|



Riff 3a

|--------------------------|
|--------------------------|
|--------------------------|
|--------------------------|
|--------------(2)---------|
|--0--2-2--2-5--0--2-2--5--|

Riff 3b
|--------------------------|
|-----------(0)--------(0)-|
|------------0----------0--|
|------------0----------0--|
|--------------(2)---------|
|--0--2-2--2----0--2-2-----|


Lyrics:

Denial, no function, loveless, no meaning
Fearless, system, suffering on, existence

Meaning, distorting , shapeless, feeling
Fearless, system, suffering on, existence

Why am I, such a void
Добавлено: 19.04.2016
Вам также может быть интересно:
Другие материалы по этой песне:
  • Аккорды и текст

Страница создана 14.07.2012
http://primanota.ru/godflesh/voidhead-chords.htm
Привет, Гость.
Предлагаем пройти революционный курс по гитаре.
Подарок от PrimaNota.Ru, забирай!