PrimaNota.ru - самый крупный в мире бесплатный архив песенных текстов, аккордов, табулатур и нот


Godflesh - Nail - текст песни, бас-таба, видео

Регистрация Запомнить меня
Войти через:  Facebook Google Twitter Vk Yandex Mail.ru

Godflesh - Nail - текст песни, бас-таба, видео

Печатать
Просмотров: 52
Авторы музыки: Justin Broadrick

Godflesh - Nail bass tab

Tabbed by Mechayoshi 
Tuning: BEAD
Contact: crazymechayoshi@gmail.com 

A fun song. Just follow the tab through the whole song. Repeat where indicated. 
For questions or mistakes, please contact me. 


Intro.  Start 00:15
D|---------------------------------------------------|
A|---------------------------------------------------|
E|---1---1-1----1---1-1---1----1-1-----1--2-777------|
B|-0----0-0---0----0-0---0----0-0----0---0-----------|
 
00:21
D|---------------------------------------------------|
A|---------------------------------------------------|
E|---1---1-1----1---1-1---1---1-1----1---------------|
B|-0----0-0---0----0-0---0---0-0---0--00-------------|

D|---------------------------------------------------|
A|---------------------------------------------------|
E|---------------------------------------------------|
B|-00--00--00--00--00--00--00--00--------------------|

0:42
D|---------------------------------------------------|
A|---------------------------------------------------|
E|---1---1-1----1---1-1---1----1-1-----1--2-777------|
B|-0----0-0---0----0-0---0----0-0----0---0-----------|

D|---------------------------------------------------|
A|---------------------------------------------------|
E|---1---1-1----1---1-1---1----1-1-----1--7-333------|
B|-0----0-0---0----0-0---0----0-0----0---0-----------|

0:56 Pause 

Start 1:06
D|---------------------------------------------------|
A|---------------------------------------------------|
E|---------------------------------------------------|
B|-0-3-0---0-3-0---0-3-0---0-3-0---------------------|

D|---------------------------------------------------|
A|---------------------------------------------------|
E|---1---1-1----1---1-1---1----1-1-----1--2-777------|
B|-0----0-0---0----0-0---0----0-0----0---0-----------|

D|---------------------------------------------------|
A|---------------------------------------------------|
E|---1---1-1----1---1-1---1----1-1-----1--7-333------|
B|-0----0-0---0----0-0---0----0-0----0---0-----------|

1:38 Pause 

Start 1:50
D|---------------------------------------------------|
A|---------------------------------------------------|
E|--1-------------1-------------1-------------1------|
B|-0-0-3-00-3----0-0-3-00-3----0-0-3-00-3----0-0-----| x2

2:05
D|-------------------------------------------------------|
A|-------------------------------------------------------|
E|-------------------------------------------------------|
B|-0-3-0-3-00-3----0-3-0-3-00-3----0-3-0-3-00-3----0-3-0-| X2

2:18
D|---------------------------------------------------|
A|---------------------------------------------------|
E|---------------------------------------------------|
B|-0-3-0----0-3-0----0-3-0----0-3-0------------------| X4

2:46
D|---------------------------------------------------|
A|---------------------------------------------------|
E|---1---1-1----1---1-1---1----1-1-----1--2-777------|
B|-0----0-0---0----0-0---0----0-0----0---0-----------|

D|---------------------------------------------------|
A|---------------------------------------------------|
E|---1---1-1----1---1-1---1----1-1-----1--7-333------|
B|-0----0-0---0----0-0---0----0-0----0---0-----------|

3:14 Pause

Start 3:37
D|---------------------------------------------------|
A|---------------------------------------------------|
E|--1-------------1-------------1-------------1------|
B|-0-0-3-00-3----0-0-3-00-3----0-0-3-00-3----0-0-----| x2

D|-------------------------------------------------------|
A|-------------------------------------------------------|
E|-------------------------------------------------------|
B|-0-3-0-3-00-3----0-3-0-3-00-3----0-3-0-3-00-3----0-3-0-| X2

D|---------------------------------------------------|
A|---------------------------------------------------|
E|--1-------------1-------------1-------------1------|
B|-0-0-3-00-3----0-0-3-00-3----0-0-3-00-3----0-0-----| x2

End. 

Добавлено: 19.04.2016
Другие материалы по этой песне:
  • Аккорды и текст

Страница создана 08.03.2012
http://primanota.ru/godflesh/nail-chords.htm
Привет, Гость.
Предлагаем пройти революционный курс по гитаре.
Подарок от PrimaNota.Ru, забирай!