PrimaNota.ru - самый крупный в мире бесплатный архив песенных текстов, аккордов, табулатур и нот


Godflesh - Crush My Soul - текст песни, таба, видео

Регистрация Запомнить меня
Войти через:  Facebook Google Twitter Vk Yandex Mail.ru

Godflesh - Crush My Soul - текст песни, таба, видео

Печатать
Просмотров: 160
Авторы музыки: Justin Broadrick

Tabbed by: m1n0r_Threat
   xh2masterchief@aim.com

Godflesh
Song: Crush My Soul
Album: Selfless

Use a good amount of distortion/fuzz. Best played through a Marshall. 

Tuning: BF#BEG#c#
*   pinch harmonic
tr  trill
/   slide
qb  quarter bend
hb  half bend

Guitar Intro
c#|----Play 7x------|-----8th time play-|
G#|-----------------|-------------------|
E |-----------------|-------------------|
B |-----7-7-7----7--|-----7-7-7*(1/4b)--|
F#|--0--7-7-7-0--7--|--0--7-7-----------|
B |--0--7-7-7-0--7--|--0--7-7-----------|

Verse 1
|-----------------|
|-----------------|
|-----------------|
|-----7-7-7----7--|
|--0--7-7-7-0--7--|
|--0--7-7-7-0--7--|

Verse 2
|----Play 3x------|------4th time Play--|
|-----------------|---------------------|
|-----------------|---------------------|
|-------2---3--3--|-----2tr3------------|
|-----3---3-------|---------------------|
|--0--------------|--0------------------|

Verse 3
|-------Play 3x------------------|--------4th time play--|
|--------------------------------|-----------------------|
|--------------------------------|-------9*--------------|
|--------------------------9hb---|-------9*--------------|
|-------9qb-9qb-9qb-9hb----------|-----9-9*--------------|
|--0--------------------0--------|--0--------------------|

Solo - tremolo picked
|--7-/-12---|------------|
|--7-/-12---|------------|
|--7-/-12---|------------|
|--7-/-12---|------------|
|-----------|------------|
|-----------|-0----------|
              ^ don't tremolo pick, just let it ring and get some feedback.

Song structure:
Synth Intro
Bass Joins
Guitar Intro - 1x               Timing is not exact. Please listen to the
Verse 1 - 8x                    song for the correct timing. Enjoy!
Verse 2 - 2x                    Questions/comments? Email me.
Verse 1 - 16x
Verse 2 - 2x
Verse 3 - 2x
Guitar Intro - 1x
Verse 1 - 8x
Verse 2 - 2x
Verse 1 - 8x
Verse 3 - 4x
Solo - 1x (ends at ~3:56)
Outro - synth and bass till the end.
Добавлено: 12.03.2012
Другие материалы по этой песне:
  • Аккорды и текст

Страница создана 12.03.2012
http://primanota.ru/godflesh/crush-my-soul-chords.htm
Привет, Гость.
Предлагаем пройти революционный курс по гитаре.
Подарок от PrimaNota.Ru, забирай!