PrimaNota.ru - самый крупный в мире бесплатный архив песенных текстов, аккордов, табулатур и нот


Goddo - Work It Out - таба, видео

Регистрация Запомнить меня
Войти через:  Facebook Google Twitter Vk Yandex Mail.ru

Goddo - Work It Out - таба, видео

Печатать
Просмотров: 71
Goddo- Work it out
>From the CD An Act of Goddo
Written by Greg Godovitz




Anthony Filoso - afiloso@microsoft.com





 

     G   D   A  (Repeat)

e:---3---2---0-------------------------------------------------------|
B:---0---3---2-------------------------------------------------------|
G:---0---2---2-------------------------------------------------------|
D:---0---0---0-------------------------------------------------------|
A:---2---------------------------------------------------------------|
E:---3---------------------------------------------------------------|





Chorus


                         Hey Somebody, Won't you tell me 

                   G                                     A

e:-----------------3-------------------------------------0---------|
B:-----5-3-2-3-2---0-------------------------------------2---------|
G:---------------2-0-------------------------------------2---------|
D:-----------------0-------------------------------------0---------|
A:-----------------2-----------------------------------------------|
E:-----------------3-----------------------------------------------|




                         I do something wrong...

                   G                                     A

e:-----------------3-------------------------------------0---------|
B:-----5-3-2-3-2---0-------------------------------------2---------|
G:---------------2-0-------------------------------------2---------|
D:-----------------0-------------------------------------0---------|
A:-----------------2-----------------------------------------------|
E:-----------------3-----------------------------------------------|


        And I need....

              C                 G                   A

e:----------------------------------------------------------------|
B:-------------1------------------------------------2--3-2-3-3-3-2|
G:-----------0--------------------0-----------------2--2-2-2-2-2-2|
D:---------2----------0-2-0-----0-------------------2-------------|
A:---0-2-3------------------3-2-------------2-3-2---0-------------|
E:------------------------------------------------3---------------|

     
Добавлено: 06.08.2013
Другие материалы по этой песне:
  • Аккорды и текст

Страница создана 06.08.2013
http://primanota.ru/goddo/work-it-out-chords.htm
Привет, Гость.
Предлагаем пройти революционный курс по гитаре.
Подарок от PrimaNota.Ru, забирай!