PrimaNota.ru - самый крупный в мире бесплатный архив песенных текстов, аккордов, табулатур и нот


Goddo - Too Much Carousing - аккорды и текст, видео

Регистрация Запомнить меня
Войти через:  Facebook Google Twitter Vk Yandex Mail.ru

Goddo - Too Much Carousing - аккорды и текст, видео

Печатать
Просмотров: 80
Too Much Carousing
Goddo
Goddo- too much carousing
>From the CD Who Cares
Written by Greg Godovitz




Anthony Filoso - afiloso@microsoft.com





Intro, 

       A      G         A        G 

e:------------3------------------3-----------------------|
B:-----2------0---------2--------0-----------------------|
G:-----2------0---------2--------0-----------------------|
D:-----2------0---------2--------0-----------------------|
A:-----0------2---------0--------2-----------------------|
E:------------3------------------3-----------------------|





     A   G  E E E            A  G E     


woke up this morning                   dead red eys,,

e:--------------------------------0-----------------------|
B:--------------------------------0-----------------------|
G:--------------------------------------------------------|
D:---2---0-------------------2-0--------------------------|
A:---0---x--2-2-2------------0-x-2------------------------|
E:-------3--0-0-0--------------3-0------------------------|


   Jump back

       A      G         A        G 

e:------------3------------------3-----------------------|
B:-----2------0---------2--------0-----------------------|
G:-----2------0---------2--------0-----------------------|
D:-----2------0---------2--------0-----------------------|
A:-----0------2---------0--------2-----------------------|
E:-345--------3------------------3-----------------------|


     
Добавлено: 10.06.2013
Другие материалы по этой песне:
  • Аккорды и текст

Страница создана 10.06.2013
http://primanota.ru/goddo/too-much-carousing-chords.htm
Привет, Гость.
Предлагаем пройти революционный курс по гитаре.
Подарок от PrimaNota.Ru, забирай!