PrimaNota.ru - самый крупный в мире бесплатный архив песенных текстов, аккордов, табулатур и нот


Goddo - Sign On The Line - таба, видео

Регистрация Запомнить меня
Войти через:  Facebook Google Twitter Vk Yandex Mail.ru

Goddo - Sign On The Line - таба, видео

Печатать
Просмотров: 70
Goddo- sign on the line
>From the CD An Act of Goddo
Written by Greg Godovitz




Anthony Filoso - afiloso@microsoft.com





Intro, 

        D        A     Bm    F#   G Gsus4 G

e:--------2-----------------------------------------------|
B:-------3-----2------3-----------------------------------|
G:------2-----2------4------3----4---555-4----------------|
D:-----0-----2------4------4----5--------5----------------|
A:----------0------2------4----5---------5----------------|
E:-----------------------2----3----------3----------------|



         D      A     Bm    F#   G Gsus4 G

e:--------2-----------------------------------------------|
B:-------3-----2------3-----------------------------------|
G:------2-----2------4------3----4---555-4----------------|
D:-----0-----2------4------4----5--------5----------------|
A:----------0--0-1-2------4----5---------5----------------|
E:-----------------------2----3----------3----------------|




         D    A     Bm    F#   G     (lick)

e:--------2-------------------------------------------------|
B:-------3-----2------3-------------------------------------|
G:------2-----2------4------3----4--------------------------|
D:-----0-----2------4------4----5---------------------------|
A:----------0--0-1-2------4----5----------5-7-5-------------|
E:-----------------------2----3-----3-5s7-------7-5-7-5-2---|


Chorus


       D D  A               A A G     

e:-----2----------------------------------------------------|
B:-----3----2-----------------------------------------------|
G:-----2----2--------------2-2------------------------------|
D:-----0----2-----2----2---2-2------------------------------|
A:----------0-00-3--3p0---------2---------------------------|
E:------------------------------3-3-b5-b5-3-----------------|


  Ending

D A B G
     
Добавлено: 19.08.2013
Другие материалы по этой песне:
  • Аккорды и текст

Страница создана 19.08.2013
http://primanota.ru/goddo/sign-on-the-line-chords.htm
Привет, Гость.
Предлагаем пройти революционный курс по гитаре.
Подарок от PrimaNota.Ru, забирай!