PrimaNota.ru - самый крупный в мире бесплатный архив песенных текстов, аккордов, табулатур и нот


Goddo - Bus Driver Blues - таба, видео

Регистрация Запомнить меня
Войти через:  Facebook Google Twitter Vk Yandex Mail.ru

Goddo - Bus Driver Blues - таба, видео

Печатать
Просмотров: 136
Уроки эстрадного вокала в Санкт-Петербурге
Goddo- Bus Driver Blues
>From the CD Goddo
Written by Greg Godovitz




Anthony Filoso - afiloso@microsoft.com





Intro, 

                      A 

e:-----------------------------------------------------------------|
B:-----------------------------------------------------------------|
G:----7-5-77-7-5-------2-------------------------------------------|
D:----7-5-77-7-5-------2-------------------------------------------|
A:----------------3-2--0-------------------------------------------|
E:-------------------3---------------------------------------------|






Hey Hey, have you heard the news...

   A                  A 

e:-----------------------------------------------------------------|
B:-----------------------------------------------------------------|
G:---2---2---2---2---2---------------------------------------------|
D:---2---2---2---2---2---------------------------------------------|
A:---0---0---0---0---0---------------------------------------------|
E:-----------------------------------------------------------------|




I know ...

   C       G              D          A  G A  

e:-----------------------------------------------------------------|
B:--1---------------------3----------2-----2-----------------------|
G:--0-----0---------------2----------2-----2-----------------------|
D:--2-----0---------------0----------0-----0-----------------------|
A:--3-----2--------------------------------------------------------|
E:--------3------------------------------3-------------------------|


Late Night work,                  Got me down

    F      F      F     F

e:-------------------------------------------------------------------|
B:-------4-3-4-3-----------------------------------------------------|
G:--2----------------------------------------------------------------|
D:--3----------------------------------------------------------------|
A:--3------------------------------------------0---------------------|
E:--1--------------------------------------------4-2-1---------------|

     
Добавлено: 06.08.2013
Другие материалы по этой песне:
  • Аккорды и текст

Страница создана 06.08.2013
http://primanota.ru/goddo/bus-driver-blues-chords.htm
Привет, Гость.
Предлагаем пройти революционный курс по гитаре.
Подарок от PrimaNota.Ru, забирай!