PrimaNota.ru - самый крупный в мире бесплатный архив песенных текстов, аккордов, табулатур и нот


God To Gravity - Dying Light - таба, видео

Регистрация Запомнить меня
Войти через:  Facebook Google Twitter Vk Yandex Mail.ru

God To Gravity - Dying Light - таба, видео

Печатать
Просмотров: 20
God To Gravity: Dying Light

Transcribed by: mysticguitar77

Facebook: https://www.facebook.com/MysticGuitar77
YouTube Channel: https://www.youtube.com/user/MysticGuitar77

Date last modified: June 16, 2015

Tuning: Drop C (C,G,C,F,A,D)

Riff 1   "These are the days I can look in the mirror..."
D|---------------------------------------------------------------|
A|---------------------------------------------------------------|
F|---------------------------------------------------------------|
C|---------------------------------------------10--10-10--10-12\-|
G|-------3-----------------------3-------------8---8--8---8--10\-|
C|-0-2-3---3-0-3b-0--------0-2-3---3-0-3b-5----8---8--8---8--10\-|

Play Riff 1 x4   "These are the lies I'm told..."

Riff 2   "Let me hear your words again..."
D|-----------------------------------------------------------------------|
A|-----------------------------------------------------------------------|
F|-----------------------------------------------------------------------|
C|-5-3--8--8-8-5-3--5--5-5--5-5-5-5-5-5-5-3-0--8--8-8--8-8-8-8-8-8-8-5-3-|
G|-5-3--8--8-8-5-3--5--5-5--5-5-5-5-5-5-5-3-0--8--8-8--8-8-8-8-8-8-8-5-3-|
C|-5-3--8--8-8-5-3--5--5-5--5-5-5-5-5-5-5-3-0--8--8-8--8-8-8-8-8-8-8-5-3-|

D|-------------------------------------------------|
A|-------------------------------------------------|
F|-------------------------------------------------|
C|-5--5-5--5-5-5-5-8-8-8-8-8-8-8-8-8-8-8-8-8-8-8-8-|
G|-5--5-5--5-5-5-5-8-8-8-8-8-8-8-8-8-8-8-8-8-8-8-8-|
C|-5--5-5--5-5-5-5-8-8-8-8-8-8-8-8-8-8-8-8-8-8-8-8-|

Riff 3   "Dying light, I'll keep you alive..."
D|---------------------------------------------------------------------------------|
A|---------------------------------------------------------------------------------|
F|---------------------------------------------------------------------------------|
C|-12--12-12--12-12-12-12--12-12--12-12-12-10--10-10--10-10-10-10--10-10--10-10-10-|
G|-10--10-10--10-10-10-10--10-10--10-10-10-8---8--8---8--8--8--8---8--8---8--8--8--|
C|-10--10-10--10-10-10-9---9--9---9--9--9--8---8--8---8--8--8--8---8--8---8--8--8--|

D|---------------------------------------------------------------------------------|
A|---------------------------------------------------------------------------------|
F|---------------------------------------------------------------------------------|
C|-10--10-10--10-10-10-10--10-10--10-10-10-12--12-12--12-12-12-12--12-12--12-12-12-|
G|-8---8--8---8--8--8--8---8--8---8--8--8--10--10-10--10-10-10-10--10-10--10-10-10-|
C|-8---8--8---8--8--8--7---7--7---7--7--7--10--10-10--10-10-10-10--10-10--10-10-10-|

D|---------------------------------------------------------------------------------|
A|---------------------------------------------------------------------------------|
F|---------------------------------------------------------------------------------|
C|-12--12-12--12-12-12-12--12-12--12-12-12-10--10-10--10-10-10-10--10-10--10-10-10-|
G|-10--10-10--10-10-10-10--10-10--10-10-10-8---8--8---8--8--8--8---8--8---8--8--8--|
C|-10--10-10--10-10-10-9---9--9---9--9--9--8---8--8---8--8--8--8---8--8---8--8--8--|

D|--------------------------------------------------------------------------|
A|--------------------------------------------------------------------------|
F|--------------------------------------------------------------------------|
C|-10--10-10--10-10-10-10--10-10--10-10-10-5--5-5--5-5-5--------------------|
G|-8---8--8---8--8--8--8---8--8---8--8--8--5--5-5--5-5-5--------------------|
C|-8---8--8---8--8--8--7---7--7---7--7--7--5--5-5--5-5-5-8b-5-5-3b-0-0-3b-0-|

Play Riff 1 x2   "These are the lines on my face growing older..."
Play Riff 2 x1   "Let me hear your words again..."
Play Riff 3 x1   "Dying light, I'll keep you alive..."

Fill 1   "Alive..."
D|---------------------------------------------------------------------------------------------|
A|---------------------------------------------------------------------------------------------|
F|---------------------------------------------------------------------------------------------|
C|---------------------------------------------------------------------------------------------|
G|---------------------------3-----------------------------------------------------------------|
C|-3/5-5-5-5-5-5-5-5-5-0-2-3---3-0-3/5-5-5-5-5-5-5-5-5-0-2-3-5-3-0-3/5-5-5-5-5-5-5-5-5-5-5-5-5-|

Riff 4 (let all chords ring out)   "Desperate times..."
D|---------------------------------------|
A|---------------------------------------|
F|---------------------------------------|
C|-0------7---8------8-\-5--0------7---8-|
G|-0------7---8------8-\-5--0------7---8-|
C|-0------7---8------8-\-5--0------7---8-|

Fill 2
D|-------------------------------------------------------------------------------------------------------|
A|-------------------------------------------------------------------------------------------------------|
F|-------------------------------------------------------------------------------------------------------|
C|-------------------------------------------------------------------------------------------------------|
G|-------3-------------------------------3b--------------------------------------3b----------------------|
C|-0-2-3---3-0-3b-0--0--0-0-6b-0--0--0-0----0--0--0-0-3b-0-0-5b-0-0-3b-0--0--0-0----0--0--0-0-3b-0--0--0-|

Solo (solo backing is the same as the chorus and is played once)
D|-10-----10------------------------------|
A|-13b15--13b15--10-----10-----10b--10----|
F|---------------12b14--12b14--10b--10----|
C|-------------------------------------12-|
G|----------------------------------------|
C|----------------------------------------|

D|--------------------------------------------------------|
A|--------------------------------------------------------|
F|-5/7-7/9-9/10-10/12-12\10-10\9-9\7/10-5/7/9-10-12/14-12-|
C|-x-x-x-x-x-x--x--x--x--x--x--x-x-x-x--x-x-x-x--x--x--x--|
G|-3/5-5/7-7/8--8//10-10\8--8\\7-7\5/8--3/5/7-8--10/12-10-|
C|--------------------------------------------------------|

D|-------------------------------------------13-10----15-13----17-15----20-17----------|
A|-----10-10----10-10----12--12-12-12-12-12--------13-------15-------18-------20-20\18-|
F|-----10-10----10-10----12--12-12-12-12-12--------------------------------------------|
C|-/12-------12-------12---------------------------------------------------------------|
G|-------------------------------------------------------------------------------------|
C|-------------------------------------------------------------------------------------|

D|-20-------17-------20-------15-------17----|
A|----17\15----15/17----17\13----13/15----15-|
F|-------------------------------------------|
C|-------------------------------------------|
G|-------------------------------------------|
C|-------------------------------------------|

D|----------------------------------------------------------12-13-15-17-15-13-12-13-15-22~--24-24b-24b-|
A|----------------------------------------13-15-17-15-13-15--------------------------------------------|
F|----------------------12-14-15-14-12-15--------------------------------------------------------------|
C|----12-14-15-12-14-15--------------------------------------------------------------------------------|
G|-15--------------------------------------------------------------------------------------------------|
C|-----------------------------------------------------------------------------------------------------|

Play Riff 3 x1   "Dying light, I'll keep you alive..."

Fill 3
D|-----------------------------------------------------------------|
A|-----------------------------------------------------------------|
F|-----------------------------------------------------------------|
C|-----------------------------------------------------------------|
G|---------------------------3-------------------------------------|
C|-3/5-5-5-5-5-5-5-5-5-0-2-3---3-0-3/5-5-5-5-5-5-5-5-5-0-2-3-5-3-0-|

Riff 5
D|----------------------------------------------------------------------------------------------|
A|----------------------------------------------------------------------------------------------|
F|----------------------------------------------------------------------------------------------|
C|----------------------------------------------------------------------------------------------|
G|---------------------------3b---------------------------------------------------3b------------|
C|-3b-0--0--0-0-6b-0--0--0-0----0--0--0-0-3b-0-0-5b-0-0-3b-0--0--0-0-6b-0--0--0-0----0--0--0--0-|

Play Riff 5 x2

Enjoy!!



Добавлено: 13.12.2015
Другие материалы по этой песне:
  • Аккорды и текст

Страница создана 13.12.2015
http://primanota.ru/god-to-gravity/dying-light-chords.htm
Привет, Гость.
Предлагаем пройти революционный курс по гитаре.
Подарок от PrimaNota.Ru, забирай!