PrimaNota.ru - самый крупный в мире бесплатный архив песенных текстов, аккордов, табулатур и нот


God Or Julie - Im So Happy I Could Die - таба, видео

Регистрация Запомнить меня
Войти через:  Facebook Google Twitter Vk Yandex Mail.ru

God Or Julie - Im So Happy I Could Die - таба, видео

Печатать
Просмотров: 81
-----------------------------------------------------------------------------
I'M SO HAPPY I COULD DIE - God Or Julie
-----------------------------------------------------------------------------
Tabbed by: Shinsen88
Email: shinsen88@yahoo.com

Tuning: DADGBe

NOTE: I'm pretty sure there are two guitars here, but the second guitar is really hard
hear on the CD. Thus, I decided to transcribe the song for one guitar. This makes the interlude
a little awkward, but hopefully it's not too bad. This is my first submitted tab, so let
know what you think!

INTRO/VERSE part 1 (0:00-0:23)
e|---------------------------------|
B|---------------------------------|
G|---------------------------------|
D|---------------------------------|
A|-9--------12-------5-------7-----|(x3)
D|-9(x8)----12(x8)---5(x8)---7(x8)-|
   .        .        .       .

e|-----------------------------------------------------2-------2---|
B|-----7-------7-------7-------7-------7-------7-------------------|
G|-7-7---7-7-7---7-6-6---6-6-6---6-4-4---4-4-4---4-2-2---2-2-2---2-|
D|-----------------------------------------------------------------|
A|-----------------------------------------------------------------|
D|-----------------------------------------------------------------|
   . .   . . .   . . .   . . .   . . .   . . .   . . .   . . .   .

e|---------------------------------------|
B|-----7-------7-------7-------7-------7-|
G|-7-7---7-7-7---7-6-6---6-6-6---6-4-4---|
D|---------------------------------------|
A|---------------------------------------|
D|---------------------------------------|
   . .   . . .   . . .   . . .   . . .

PRE-CHORUS (0:24-0:26)
e|--------------------|
B|--------------------|
G|-4--6--7--9--11--14-|
D|-x--x--x--x--x---x--|
A|-2--4--5--7--9---12-|
D|--------------------|

CHORUS 1 (0:27-0:53)
e|----------------------------------------------------------------|
B|----------------------------------------------------------------|
G|----------------------------------------------------------------|
D|-5-------2------7------9-9-12-9-9-0--9-9-12-9-9-0--7------4-----|
A|-5-------2------7------9-9-12-9-9-0--9-9-12-9-9-0--7------4-----|
D|-5(x16)--2(x8)--7(x8)--9-9-12-9-9-0--9-9-12-9-9-0--7(x8)--4(x8)-|

e|-----------------------------------------------------------------------|
B|-----------------------------------------------------------------------|
G|-----------------------------------------------------------------------|
D|-5-------2------7------9-9-12-9-9-0--9-9-12-9-9-0--9-9-12-9-9-0--7-7-7-|
A|-5-------2------7------9-9-12-9-9-0--9-9-12-9-9-0--9-9-12-9-9-0--7-7-7-|
D|-5(x16)--2(x8)--7(x8)--9-9-12-9-9-0--9-9-12-9-9-0--9-9-12-9-9-0--7-7-7-|

INTRO/VERSE (0:54-1:17)
PRECHORUS (1:18-1:20)

CHORUS 2 (1:21-1:46)
e|----------------------------------------------------------------|
B|----------------------------------------------------------------|
G|----------------------------------------------------------------|
D|-5-------2------7------9-9-12-9-9-0--9-9-12-9-9-0--7------4-----|
A|-5-------2------7------9-9-12-9-9-0--9-9-12-9-9-0--7------4-----|
D|-5(x16)--2(x8)--7(x8)--9-9-12-9-9-0--9-9-12-9-9-0--7(x8)--4(x8)-|

e|--------------------------------------------------------------------------|
B|--------------------------------------------------------------------------|
G|--------------------------------------------------------------------------|
D|-5-------2------7------9-9-12-9-9-0--9-9-12-9-9-0--9-9-12-9-9-0--7--7-----|
A|-5-------2------7------9-9-12-9-9-0--9-9-12-9-9-0--9-9-12-9-9-0--7--7-----|
D|-5(x16)--2(x8)--7(x8)--9-9-12-9-9-0--9-9-12-9-9-0--9-9-12-9-9-0--7--7(x7)-|


INTERLUDE (1:47-2:10)
e|----------------------------------------------|
B|----------------------------------------------|
G|----------------------------------------------|
D|-5-5-5--7-7-7--11-11-11\10--9-9-9--9-12-12-12-|
A|-5-5-5--7-7-7--11-11-11\10--9-9-9--9-12-12-12-|(x2)
D|-5-5-5--7-7-7--11-11-11\10--9-9-9--9-12-12-12-|

e|---------------------------------------------------------------------|
B|------------------------------------------------------------10-10-10-|
G|-------7-7-7-7---------------------------7-7-7-7---------------------|
D|-5-5-5---------7-7-7--11-11-11\10--9-9-9---------9-12-12-12----------|
A|-5-5-5---------7-7-7--11-11-11\10--9-9-9---------9-12-12-12----------|
D|-5-5-5---------7-7-7--11-11-11\10--9-9-9---------9-12-12-12----------|

e|-------------------------------|
B|---------------------10-10-10\-|
G|-------7-7-7-7-----------------|
D|-5-5-5---------7-7-7-----------|
A|-5-5-5---------7-7-7-----------|
D|-5-5-5---------7-7-7-----------|

BRIDGE (2:11-2:25)
e|----------------------------------------|
B|----------------------------------------|
G|----------------------------------------|
D|----------------------------------------|
A|-5--------2-------7-------9-------4-----|
D|-5(x8)----2(x8)---7(x8)---9(x16)--4(x9)-|
   .        .        .      .

CHORUS 3 (2:26-2:40)
e|--------------------------------------------------|
B|--------------------------------------------------|
G|--------------------------------------------------|
D|-5-------2------7------9-9-12-9-9-0--9-9-12-9-9-0-|
A|-5-------2------7------9-9-12-9-9-0--9-9-12-9-9-0-|
D|-5(x16)--2(x8)--7(x8)--9-9-12-9-9-0--9-9-12-9-9-0-|

e|---------------------------------|
B|---------------------------------|
G|---------------------------------|
D|-9-0-0--9-0-0--9-0-0--9-0-0--7-7-|
A|-9-0-0--9-0-0--9-0-0--9-0-0--7-7-|
D|-9-0-0--9-0-0--9-0-0--9-0-0--7-7-|

OUTRO (2:41-3:15)
e|----------------------------------------|
B|----------------------------------------|
G|----------------------------------------|
D|-5------7-7-7--4-4--11\10--9------0-----|
A|-5------7-7-7--4-4--11\10--9------0-----|(x3)
D|-5(x8)--7-7-7--4-4--11\10--9(x8)--0(x8)-|

e|--------------------------------------------------|
B|--------------------------------------------------|
G|--------------------------------------------------|
D|-5------7-7-7--4-4--11\10--9------0-0-0--0--3+-3+-|
A|-5------7-7-7--4-4--11\10--9------0-0-0--0--3+-3+-|
D|-5(x8)--7-7-7--4-4--11\10--9(x8)--0-0-0--0--3+-3+-|
                                           .

e|----------------------------------|
B|----------------------------------|
G|----------------------------------|
D|-5-5-5--2-2-2--11-11-11\10--9-9-9-|
A|-5-5-5--2-2-2--11-11-11\10--9-9-9-|
D|-5-5-5--2-2-2--11-11-11\10--9-9-9-|

| .  palm mute
| /  slide up
| \  slide down
| h  hammer-on
| p  pull-off
| ~  vibrato
| +  harmonic
| x  Mute note
============================================================================
Добавлено: 25.04.2012
Вам также может быть интересно:
Другие материалы по этой песне:
  • Аккорды и текст

Страница создана 25.04.2012
http://primanota.ru/god-or-julie/im-so-happy-i-could-die-chords.htm
Привет, Гость.
Предлагаем пройти революционный курс по гитаре.
Подарок от PrimaNota.Ru, забирай!